Guitar Tabs, Chords and Lyrics
Major upgrade!! After one year development the new version of Chordie is now online! Please give feedback.


Trying to Survive   Montgomery Gentry

 
 1---------------------3------------3-----------3----------
 2---------------------2------------3-----------0----------
 3---------------------3------------0-----------0----------
 4-----2---------------0------------2-----------0----------
 5--Oh2-0h2p0----------0------------3-----------2----------
 6------------3-o------0------------x-----------x----------

 


 


 PART TWO


 

 
 THE VERSE IS VERY SIMPLE C-G-D-A-D-G-B-C-D

 


 


 SOLO


 

 
 1-8---8----8---------------------------------------------------------
 2--10---10---10---------------------------12B--10B---13B---13-12-10--
 3-----------------------------------------12B--10B-------------------
 4--------------------------------10-11-12 ---------------------------
 5-----------------------10-11-12-------------------------------------
 6----------------10--13----------------------------------------------


Important: The song above is NOT stored on the Chordie server. The original song is hosted at www.tabcountry.com. Chordie works as a search engine and provides on-the-fly formatting. Chordie does not index songs against artists'/composers' will. To remove this song please click here.

This song is displayed as text-only. Transposing and tuning is only available for chordpro-songs.
Rate #1 of 3 versions

Login - add to songbook

SHARE PAGE  




You need to log in to post comments