Guitar Tabs, Chords and Lyrics
Major upgrade!! After one year development the new version of Chordie is now online! Please give feedback.


Come on Over   Shania Twain

 
 -----------------------------------------------
 -----------------------------------------------
 ----h-9----h--9-----h--9--9--9-----h--9--------
 -9^11---9^11-----9^11-----------9^11-----------
 -----------------------------------------------
 -----------------------------------------------

 


 


 CHORUS: COME ON OVER PART


 (YOU WILL HAVE TO MOVE UP ONE FRET FOR EACH VERSE)


 


 

 
 --------------------------------------------------------------
 -9-------------9--------------9--------------------9-------9--
 ---11--9----------11--9---11-----11--9-----9--11------11------
 ----------11----------------------------11--------------------
 --------------------------------------------------------------
 --------------------------------------------------------------

 


 


 0h, Oh, Oh, PART


 (YOU WILL HAVE TO MOVE UP ONE FRET FOR EACH VERSE)


 


 REPEAT


 

 
 --------------------------------
 -9------------------------------
 ----11--9----9--9-------9---11--
 -------------------11-----------
 --------------------------------
 --------------------------------


Important: The song above is NOT stored on the Chordie server. The original song is hosted at www.tabcountry.com. Chordie works as a search engine and provides on-the-fly formatting. Chordie does not index songs against artists'/composers' will. To remove this song please click here.

This song is displayed as text-only. Transposing and tuning is only available for chordpro-songs.
Rate #1 of 8 versions

Jango Player

Login - add to songbook

SHARE PAGE  




You need to log in to post comments