Guitar Tabs, Chords and Lyrics
Server problems seems to be fixed. Chordie has been experiencing problems with songs disappearing. These issues now seems to be fixed, but still verifying the fix. If you find anything strange, please email admin@chordie.com.


Soulfire   12 Stones

 
 D------------------------------------------------------
 A------------------------------------------------------
 F-5-7---7----7----8----8----8-5-7----7----7---8----8---
 C----00---00---00---00---00-------00---00--00---00--00-
 G------------------------------------------------------
 C------------------------------------------------------

 


 


 Intro(continued)


 

 
 D----------------------------------------------------------------------
 A----------------------------------------------------------------------
 F-8-5-7---7----7----8----8----8-5-7----7----7---10-10-10-10-10-10-10-10
 C------00---00---00---00---00-------00---00--00------------------------
 G----------------------------------------------------------------------
 C----------------------------------------------------------------------

 


 


 Intro(guitar 2)


 

 
 D------------------------------------------------
 A------------------------------------------------
 F------------------------------------------------
 C--------------------------------------0000-00-00
 G--------------------------------------0000-00-00
 C--------------------------------------0000-00-00

 


 **** ** **


 ^palm-mute


 


 Intro 2(Distortion in)Repeat x4


 

 
 D-----------------------------------------
 A-----------------------------------------
 F------5/7-7-7-8-8-8-8-8-8-8--------------
 C-0-00-x-x-x-x-x-x-x-x-x-x-x--------------
 G-0-00-3/5-5-5-6-6-6-6-6-6-6--------------
 C-0-00------------------------------------

 


 **


 ^palm-mute


 


 At the 4th time repeat


 

 
 D-----------------------------------------
 A-----------------------------------------
 F------5/7-7-7-10-10-10-10-10-10-10-------
 C-0-00-x-x-x-x-x--x--x--x--x--x--x--------
 G-0-00-3/5-5-5-8--8--8--8--8--8--8--------
 C-0-00------------------------------------

 


 **


 


 Verse(Let ring from 0:23 to 0:28)


 

 
 D---------------
 A---------------
 F---------------
 C-0-------------
 G-0-------------
 C-0-------------

 


 ^Let ring


 


 Fill before chorus


 [D-----]  


 [A-----]  


 [F-----]C-0000


 G-0000


 C-0000


 ****


 


 Chorus is the same as intro 2


 


 Then the verse(Let ring from 1:02 to 1:08)


 Then the chorus


 


 Bridge


 

 
 D----------------------------------
 A----------------------------------
 F----------------------------------
 C-0----------0---------0----------0
 G-0----------0---------0----------0
 C-0----------0---------0----------0

 


 ^Let ring ^ ^ ^


 


 Bridge(continued)


 

 
 D--------------------------------------------------------------------
 A--------------------------------------------------------------------
 F------8-8-8-8------8-8-8-8------8-8-8-8--------------8-8-8-8--------
 C-00---x-x-x-x-00---x-x-x-x-00---x-x-x-x---------00---x-x-x-x--------
 G-00---6-6-6-6-00---6-6-6-6-00---6-6-6-6---------00---6-6-6-6--------
 C-00-----------00-----------00-------------------00------------------ 


Important: The song above is NOT stored on the Chordie server. The original song is hosted at www.xguitar.com. Chordie works as a search engine and provides on-the-fly formatting. Chordie does not index songs against artists'/composers' will. To remove this song please click here.

This song is displayed as text-only. Transposing and tuning is only available for chordpro-songs.
Rate #1 of 3 versions

Jango Player

Login - add to songbook

SHARE PAGE  



You need to log in to post comments