Guitar Tabs, Chords and Lyrics
Major upgrade!! After one year development the new version of Chordie is now online! Please give feedback.


DLMD  311

Performed by 311
From the album "311" on Capricorn Records
Music by: N. Hexum
Lyrics by: N. Hexum & D. Martinez
(c) 1995 Allegiance Music/Hydroponic Music BMI
 
 ---------------

Tabbed by: Josh Tyson (jotyson@vt.edu)
Additions/Corrections by: Gregory Parr (gparr@tiger.lsuiss.ocs.lsu.edu)
Fred Lidskog (swede@email.unc.edu)
The 311 Guitar Archive -- http://chromosome.colorado.edu/311archive/
Intro A (w/Distortion):
=======================
N.C. C5(add B)/G G5 F5 A5
 
 1:-----------------------------
 2:-----------------------------
 3:---------4---------------------
 4:---------5-------------5--3--7-
 5:-5-3-----3------5-3----5--3--7-
 6:-----5---3----------5--3--1--5-

Intro B (w/Distortion):
=======================
[Bb5] [A5]  
 
 1:----------------------
 2:----------------------
 3:----------------------
 4:-8-8-8-8-8-8-8-8--7//-
 5:-8-8-8-8-8-8-8-8--7//-
 6:-6-6-6-6-6-6-6-6--5//-

Verse (w/Octaver):
==================
N.C.
 
 1:-----------------------------------
 2:-----------------------------------
 3:-----------------------------------
 4:---------------------------3-3-----
 5:-5-3-5-3--5-3-5-3--5-3-5-3-----3-5-
 6:-----------------------------------

Chorus (w/Distortion):
======================
N.C. F#5 N.C. F#5
 
 1:----------------------------------------
 2:----------------------------------------
 3:----------------------------------------
 4:-----------4---------------4--4-4--4--4-
 5:-7-5-------4---7-5---------4--4-4--4--4-
 6:-----7-5-3-2-------7-5-3-2-2--2-2--2--2-

Ending (w/Distortion):
======================
F#5-->F#5/E
 
 1:------------------------
 2:------------------------
 3:------------------------
 4:-4--4-4-4--4-4-4--4-4-4-
 5:-4--4-4-4--4-4-4--4-4-4-
 6:-2--0-2-2--0-2-2--0-2-2-

Lyrics/Song Structure:
======================
---> Play Intro A over:
Don't let me down, don't let me down again
Don't let me down, don't let me down again
Don't let me down, don't let me down again
Don't let me down, don't let me down again
---> Play Intro B
---> Play Verse over:
Swelled up eye's oh my the girl got beat
And the stupid mother fucker who made you so
That punk is a coward let that be told
I hear voices in the night that are electric
He kicks the shit out of her because he's heartless
She won't leave she has low self esteem
He's got gravitational pull
Sucks her body till her heart and her limbs grow cold
---> Play Chorus over:
Hang in there use your head
How can I love you after you're dead
Hang in there keep trying
How can I love you after dying
---> Play Verse over:
Here's what you got to tell him
I'm thinking of a picture that's keeping me in stitch
You're causing me a mental glitch
'Cause jealousy is such a bitch
I hereby emancipate myself from that
You can consider yourself free to flirt and chat
With whoever you want
It should have always been that way
The way that you want the way that you play
My mind is blank slate I'm pretending you're erased
You cannot let me down when I cannot see your face
---> Play Chorus over:
Hang in there use your head
How can I love you after you're dead
Hang in there keep trying
How can I love you after dying
---> Play Verse over:
Ode to a beat up girl, I know you're out there
Stronger than you think, stand up if you care
Get up off the ground, don't let me down
Get up off the ground, don't let me down
---> Play Chorus over:
Hang in there use your head
How can I love you after you're dead
Hang in there keep trying
How can I love you after dying
And you, I'm a let you pass without kicking you're ass
Because I'm above it you hurt someone I love
It takes two to make a thing go right and that's trite
But one just to sneak and weasel through the night
---> Play Ending over:
If you hurt her again I'll fuck you up
If you hurt her again I'll fuck you up, fuck you up
If you hurt her again I'll fuck you up
If you hurt her again I'll fuck you up, fuck you up
---> End on a D5/A (x0023x)

Important: The song above is NOT stored on the Chordie server. The original song is hosted at www.xguitar.com. Chordie works as a search engine and provides on-the-fly formatting. Chordie does not index songs against artists'/composers' will. To remove this song please click here.

Text color:
Chord color:
Chord grids: 
Font size:    
Page size: 

A5 Bb5
Rate #1 of 2 versions

Jango Player

Login - add to songbook

SHARE PAGE  




You need to log in to post comments