Guitar Tabs, Chords and Lyrics
Server problems seems to be fixed. Chordie has been experiencing problems with songs disappearing. These issues now seems to be fixed, but still verifying the fix. If you find anything strange, please email admin@chordie.com.


Ending in Tragedy  New Found Glory

As recorded by New Found Glory
(From the 2004 Album CATALYST)
Music by New Found Glory
Gtr I (E A D G B E) - 'Piano'
Gtr II (E A D G B E) - 'Guitar 2 Clean'
Gtr III (E A D G B E) - 'Guitar 3 Clean'
Gtr IV (E A D G B E) - 'Guitar 4'
Gtr V (E A D G B E) - 'Guitar 5'
Gtr VI (E A D G B E) - 'Guitar 6, 7'
Intro
Moderately Q.=55
6[G#m]/8[F#6sus4] [Emaj7] [F#6sus4] [G#m] [F#6sus4] [Emaj7] [F#6sus4]
Gtr I
Q. E E E +E Q +Q. Q. E E E +E Q Q.
 
 ||---------------|-----------------|--------------|-------------------||
 ||o-4------------|-----------------|-4----------7-|-(7)-4------------o||
 ||---------6p4-3-|-(3)-4---(4)-----|--------6p4---|---------6---------||
 ||---------------|-----------------|--------------|-------------------||
 ||o--------------|-----------------|--------------|------------------o||
 ||---------------|-----------------|--------------|-------------------||

|
| Gtr II
| E E E E E E E E E E E E E E E E E E E E E E S S E
 
 ||---------------|-----------------|--------------|-------------------||
 ||o----4-----4---|-----4-------4---|----4-----4---|-----4------4-----o||
 ||-----4-----4---|-----4-------4---|----4-----4---|-----4--------4----||
 ||--6----6-4---4-|--2----2--4----4-|-6----6-4---4-|--2----2-4------4--||
 ||o--------------|-----------------|--------------|------------------o||
 ||---------------|-----------------|--------------|-------------------||

|
| Gtr III
| E E E E E E E E E E E E E E E E E E E E E E E E
 
 ||---------------|-----------------|--------------|-------------------||
 ||o----4-----4---|-----4-------4---|----4-----4---|-----4------4-----o||
 ||-----4-----4---|-----4-------4---|----4-----4---|-----4------4------||
 ||--6----6-4---4-|--2----2--4----4-|-6----6-4---4-|--2----2-4------4--||
 ||o--------------|-----------------|--------------|------------------o||
 ||---------------|-----------------|--------------|-------------------||

Verse
[G#m]Gtr I[F#6sus4] [Emaj7] [F#6sus4] [G#m] [F#6sus4] [Emaj7] [F#6sus4]
H. +H. +H. W
 
 |--------------|---------------|---------------|--------------|
 |--------------|---------------|---------------|--------------|
 |-4------------|-(4)-----------|-(4)-----------|--------------|
 |--------------|---------------|---------------|--------------|
 |--------------|---------------|---------------|--------------|
 |--------------|---------------|---------------|--------------|

|
| Gtr II
| E E E E E E E E E E E E E E E E E E E E E E E E
 
 |--------------|---------------|---------------|--------------|
 |----4-4---4-4-|-----4-4---4-4-|-----4-4---4-4-|---4-4---4-4--|
 |----4-4---4-4-|-----4-4---4-4-|-----4-4---4-4-|---4-4---4-4--|
 |-6------4-----|--2------4-----|--6------4-----|-2-----4------|
 |--------------|---------------|---------------|--------------|
 |--------------|---------------|---------------|--------------|

[G#m]Gtr II[F#6sus4] [Emaj7] [F#6sus4] [G#m] [F#6sus4] [Emaj7] [F#6sus4]
[E] [E] [E] [E] [E] [E] [E] [E] [E] [E] [E] [E] [E] [E] [E] [E] [E] [E] [E] [E] [E] [E] [E] [E]  
 
 |-------------|-------------|-------------|--------------||
 |---4-4---4-4-|---4-4---4-4-|---4-4---4-4-|---4-4--------||
 |---4-4---4-4-|---4-4---4-4-|---4-4---4-4-|---4-4---4----||
 |-6-----4-----|-2-----4-----|-6-----4-----|-2-----4---4--||
 |-------------|-------------|-------------|--------------||
 |-------------|-------------|-------------|--------------||

Interlude
[G#m]Gtr I[F#6sus4] [Emaj7] [F#6sus4] [G#m] [F#6sus4] [Emaj7] [F#6sus4]
Q. E E E +E Q +Q. Q. E E E +E Q Q.
 
 |--------------|-----------------|--------------|------------------||
 |-4------------|-----------------|-4----------7-|-(7)-4------------||
 |--------6p4-3-|-(3)-4---(4)-----|--------6p4---|---------6--------||
 |--------------|-----------------|--------------|------------------||
 |--------------|-----------------|--------------|------------------||
 |--------------|-----------------|--------------|------------------||

|
| Gtr II
| E E E E E E E E E E E E E E E E E E E E E E S S E
 
 |--------------|-----------------|--------------|------------------||
 |----4-----4---|-----4-------4---|----4-----4---|-----4------4-----||
 |----4-----4---|-----4-------4---|----4-----4---|-----4--------4---||
 |-6----6-4---4-|--2----2--4----4-|-6----6-4---4-|--2----2-4------4-||
 |--------------|-----------------|--------------|------------------||
 |--------------|-----------------|--------------|------------------||

|
| Gtr III
| E E E E E E E E E E E E E E E E E E E E E E E E
 
 |--------------|-----------------|--------------|------------------||
 |----4-----4---|-----4-------4---|----4-----4---|-----4------4-----||
 |----4-----4---|-----4-------4---|----4-----4---|-----4------4-----||
 |-6----6-4---4-|--2----2--4----4-|-6----6-4---4-|--2----2-4------4-||
 |--------------|-----------------|--------------|------------------||
 |--------------|-----------------|--------------|------------------||

Verse
[G#m]Gtr I[F#6sus4] [Emaj7] [F#6sus4] [G#m] [F#6sus4] [Emaj7] [F#6sus4]
Q. E E E +E Q +Q. Q. E E E +E Q Q.
 
 |--------------|-----------------|--------------|------------------|
 |-4------------|-----------------|-4----------7-|-(7)-4------------|
 |--------6p4-3-|-(3)-4---(4)-----|--------6p4---|---------6--------|
 |--------------|-----------------|--------------|------------------|
 |--------------|-----------------|--------------|------------------|
 |--------------|-----------------|--------------|------------------|

|
| Gtr II
| E E E E E E E E E E E E E E E E E E E E E E S S E
 
 |--------------|-----------------|--------------|------------------|
 |----4-----4---|-----4-------4---|----4-----4---|-----4------4-----|
 |----4-----4---|-----4-------4---|----4-----4---|-----4--------4---|
 |-6----6-4---4-|--2----2--4----4-|-6----6-4---4-|--2----2-4------4-|
 |--------------|-----------------|--------------|------------------|
 |--------------|-----------------|--------------|------------------|

|
| Gtr III
| E E E E E E E E E E E E E E E E E E E E E E E E
 
 |--------------|-----------------|--------------|------------------|
 |----4-----4---|-----4-------4---|----4-----4---|-----4------4-----|
 |----4-----4---|-----4-------4---|----4-----4---|-----4------4-----|
 |-6----6-4---4-|--2----2--4----4-|-6----6-4---4-|--2----2-4------4-|
 |--------------|-----------------|--------------|------------------|
 |--------------|-----------------|--------------|------------------|

[G#m]Gtr I[F#6sus4] [Emaj7] [F#6sus4] [G#m] [F#6sus4] [Emaj7] [F#6sus4]
Q. E E E +E Q +Q. Q. E E E +E Q Q.
 
 |--------------|-----------------|--------------|----------------------||
 |-4------------|-----------------|-4----------7-|-(7)-4----------------||
 |--------6p4-3-|-(3)-4---(4)-----|--------6p4---|-----------6----------||
 |--------------|-----------------|--------------|----------------------||
 |--------------|-----------------|--------------|----------------------||
 |--------------|-----------------|--------------|----------------------||

|
| Gtr II
| E E E E E E E E E E E E E E E E E E E E E a E S S S S
 
 |--------------|-----------------|--------------|----------------------||
 |----4-----4---|-----4-------4---|----4-----4---|----------------------||
 |----4-----4---|-----4-------4---|----4-----4---|-----4---4s6--6-6-6-6-||
 |-6----6-4---4-|--2----2--4----4-|-6----6-4---4-|--2----2-2s4--4-4-4-4-||
 |--------------|-----------------|--------------|----------------------||
 |--------------|-----------------|--------------|----------------------||

|
| Gtr III
| E E E E E E E E E E E E E E E E E E E E E E E E
 
 |--------------|-----------------|--------------|----------------------||
 |----4-----4---|-----4-------4---|----4-----4---|-----4--------4-------||
 |----4-----4---|-----4-------4---|----4-----4---|-----4--------4-------||
 |-6----6-4---4-|--2----2--4----4-|-6----6-4---4-|--2----2---4------4---||
 |--------------|-----------------|--------------|----------------------||
 |--------------|-----------------|--------------|----------------------||

Chorus
[B5]Gtr VI[F#5]
E S E S E. S E E S E S E. S E
 
 |-----------------------|----------------|
 |-----------------------|----------------|
 |--4--4--4--4--4---4--4-|----------------|
 |--4--4--4--4--4---4--4-|-4-4-4-4-4--4-4-|
 |--2--2--2--2--2---2--2-|-4-4-4-4-4--4-4-|
 |-----------------------|-2-2-2-2-2--2-2-|

|
| Gtr IV
| E S E S E. S E E S E S E. S E
 
 |-----------------------|----------------|
 |-----------------------|----------------|
 |-11-11-11-13-13--13-13S|=6-6-6-8-6--6-6-|
 |--x--x--x--x--x---x--x-|-x-x-x-x-x--x-x-|
 |--9--9--9-11-11--11-11S|=4-4-4-6-4--4-4-|
 |-----------------------|----------------|

|
| Gtr V
| E S E S E. S E E S E S E. S E
 
 |-----------------------|----------------|
 |-----------------------|----------------|
 |--4--4--4--6--8---8--8S|=3-3-3-4-6--6-6-|
 |--x--x--x--x--x---x--x-|-x-x-x-x-x--x-x-|
 |--2--2--2--4--6---6--6S|=1-1-1-2-4--4-4-|
 |-----------------------|----------------|

[E5]E S E S E S S E [B5] E S S S S [F#5]E S S S S
 
 |-----------------|-------------------------|
 |-----------------|-------------------------|
 |-----------------|--4--4--4--4-x-----------|
 |-2-2-2-2-2-2-2-2-|--4--4--4--4-x-4-4-4-4-x-|
 |-2-2-2-2-2-2-2-2-|--2--2--2--2-x-4-4-4-4-x-|
 |-0-0-0-0-0-0-0-0-|---------------2-2-2-2-x-|

|
| E S E S E S S E E S S E E S S S S
 
 |-----------------|-------------------------|
 |-----------------|-------------------------|
 |-9-9-9-9-9-9-9-9-|-11-11-11-11S==6-6-6-6-x-|
 |-x-x-x-x-x-x-x-x-|--x--x--x--x---x-x-x-x-x-|
 |-7-7-7-7-7-7-7-7-|--9--9--9--9S==4-4-4-4-x-|
 |-----------------|-------------------------|

|
| E S E S E S S E E S S S S E S S S S
 
 |-----------------|-------------------------|
 |-----------------|-------------------------|
 |-4-4-4-4-4-4-4-4-|--8--8--8--8-x-6-6-6-x-x-|
 |-x-x-x-x-x-x-x-x-|--x--x--x--x-x-x-x-x-x-x-|
 |-2-2-2-2-2-2-2-2-|--6--6--6--6-x-4-4-4-x-x-|
 |-----------------|-------------------------|

[B5] E S E S E. S E [F#5]E S E S E. S E
 
 |-----------------------|----------------|
 |-----------------------|----------------|
 |--4--4--4--4--4---4--4-|----------------|
 |--4--4--4--4--4---4--4-|-4-4-4-4-4--4-4-|
 |--2--2--2--2--2---2--2-|-4-4-4-4-4--4-4-|
 |-----------------------|-2-2-2-2-2--2-2-|

|
| E S E S E. S E E S E S E. S E
 
 |-----------------------|----------------|
 |-----------------------|----------------|
 |-11-11-11-13-13--13-13S|=6-6-6-8-6--6-6-|
 |--x--x--x--x--x---x--x-|-x-x-x-x-x--x-x-|
 |--9--9--9-11-11--11-11S|=4-4-4-6-4--4-4-|
 |-----------------------|----------------|

|
| E S E S E. S E E S E S E. S E
 
 |-----------------------|----------------|
 |-----------------------|----------------|
 |--4--4--4--6--8---8--8S|=3-3-3-4-6--6-6-|
 |--x--x--x--x--x---x--x-|-x-x-x-x-x--x-x-|
 |--2--2--2--4--6---6--6S|=1-1-1-2-4--4-4-|
 |-----------------------|----------------|

[E5]E S E S E S S E [B5] E S S S S [F#5]E S S S S
 
 |-----------------|-------------------------|
 |-----------------|-------------------------|
 |-----------------|--4--4--4--4-4-----------|
 |-2-2-2-2-2-2-2-2-|--4--4--4--4-4-4-4-4-4-4-|
 |-2-2-2-2-2-2-2-2-|--2--2--2--2-2-4-4-4-4-4-|
 |-0-0-0-0-0-0-0-0-|---------------2-2-2-2-2-|

|
| E S E S E S S E E S S E E S S S S
 
 |-----------------|-------------------------|
 |-----------------|-------------------------|
 |-9-9-9-9-9-9-9-9-|-11-11-11-11S==6-6-6-6-6-|
 |-x-x-x-x-x-x-x-x-|--x--x--x--x---x-x-x-x-x-|
 |-7-7-7-7-7-7-7-7-|--9--9--9--9S==4-4-4-4-4-|
 |-----------------|-------------------------|

|
| E S E S E S S E E S S E E S S S S
 
 |-----------------|-------------------------|
 |-----------------|-------------------------|
 |-4-4-4-4-4-4-4-4-|--8--8--8--8---6-6-6-6-6-|
 |-x-x-x-x-x-x-x-x-|--x--x--x--x---x-x-x-x-x-|
 |-2-2-2-2-2-2-2-2-|--6--6--6--6---4-4-4-4-4-|
 |-----------------|-------------------------|

Interlude
[G#m]Gtr I[F#6sus4] [Emaj7] [F#6sus4] [F#6sus4] [Emaj7] [F#6sus4]
Q. E E E +E Q +Q. Q. E E E +E Q Q.
 
 |--------------|-----------------|--------------|------------------||
 |-4------------|-----------------|-4----------7-|-(7)-4------------||
 |--------6p4-3-|-(3)-4---(4)-----|--------6p4---|---------6--------||
 |--------------|-----------------|--------------|------------------||
 |--------------|-----------------|--------------|------------------||
 |--------------|-----------------|--------------|------------------||

|
| Gtr II
| E E E E E E E E E E E E E E E E E E E E E E S S E
 
 |--------------|-----------------|--------------|------------------||
 |----4-----4---|-----4-------4---|----4-----4---|-----4------4-----||
 |----4-----4---|-----4-------4---|----4-----4---|-----4--------4---||
 |-6----6-4---4-|--2----2--4----4-|-6----6-4---4-|--2----2-4------4-||
 |--------------|-----------------|--------------|------------------||
 |--------------|-----------------|--------------|------------------||

|
| Gtr III
| E E E E E E E E E E E E E E E E E E E E E E E E
 
 |--------------|-----------------|--------------|------------------||
 |----4-----4---|-----4-------4---|----4-----4---|-----4------4-----||
 |----4-----4---|-----4-------4---|----4-----4---|-----4------4-----||
 |-6----6-4---4-|--2----2--4----4-|-6----6-4---4-|--2----2-4------4-||
 |--------------|-----------------|--------------|------------------||
 |--------------|-----------------|--------------|------------------||

Verse
G#m F#6sus4 Emaj7 F#6sus4 G#m F#6sus4 Emaj7 N.C.
Gtr II
E E E E E E E E E E E E E E E E E E E. S +S S E E E
 
 |-------------|-------------|-------------|----------------------||
 |---4-4---4-4-|---4-4---4-4-|---4-4---4-4-|----4-(4)---------4---||
 |---4-4---4-4-|---4-4---4-4-|---4-4---4-4-|----4-(4)---------4---||
 |-6-----4-----|-2-----4-----|-6-----4-----|-2--------2-4-4-------||
 |-------------|-------------|-------------|----------------------||
 |-------------|-------------|-------------|----------------------||

|
| Gtr IV
| W W W Q. E S S S S
 
 |-------------|-------------|-------------|----------------------||
 |-------------|-------------|-------------|----------------------||
 |-------------|-------------|-------------|------------x-x-x-x-x-||
 |-------------|-------------|-------------|------------x-x-x-x-x-||
 |-------------|-------------|-------------|------------x-x-x-x-x-||
 |-------------|-------------|-------------|----------------------||

|
| Gtr VI
| W W W Q. E S S S S
 
 |-------------|-------------|-------------|----------------------||
 |-------------|-------------|-------------|----------------------||
 |-------------|-------------|-------------|--------------x-x-x-x-||
 |-------------|-------------|-------------|--------------x-x-x-x-||
 |-------------|-------------|-------------|--------------x-x-x-x-||
 |-------------|-------------|-------------|----------------------||

Chorus
[B5]Gtr VI[F#5]
E S E S E. S E E S E S E. S E
 
 |-----------------------|----------------|
 |-----------------------|----------------|
 |--4--4--4--4--4---4--4-|----------------|
 |--4--4--4--4--4---4--4-|-4-4-4-4-4--4-4-|
 |--2--2--2--2--2---2--2-|-4-4-4-4-4--4-4-|
 |-----------------------|-2-2-2-2-2--2-2-|

|
| Gtr IV
| E S E S E. S E E S E S E. S E
 
 |-----------------------|----------------|
 |-----------------------|----------------|
 |-11-11-11-13-13--13-13S|=6-6-6-8-6--6-6-|
 |--x--x--x--x--x---x--x-|-x-x-x-x-x--x-x-|
 |--9--9--9-11-11--11-11S|=4-4-4-6-4--4-4-|
 |-----------------------|----------------|

|
| Gtr V
| E S E S E. S E E S E S E. S E
 
 |-----------------------|----------------|
 |-----------------------|----------------|
 |--4--4--4--6--8---8--8S|=3-3-3-4-6--6-6-|
 |--x--x--x--x--x---x--x-|-x-x-x-x-x--x-x-|
 |--2--2--2--4--6---6--6S|=1-1-1-2-4--4-4-|
 |-----------------------|----------------|

[E5]E S E S E S S E [B5] E S S S S [F#5]E S S S S
 
 |-----------------|-------------------------|
 |-----------------|-------------------------|
 |-----------------|--4--4--4--4-4-----------|
 |-2-2-2-2-2-2-2-2-|--4--4--4--4-4-4-4-4-4-4-|
 |-2-2-2-2-2-2-2-2-|--2--2--2--2-2-4-4-4-4-4-|
 |-0-0-0-0-0-0-0-0-|---------------2-2-2-2-2-|

|
| E S E S E S S E E S S E E S S S S
 
 |-----------------|-------------------------|
 |-----------------|-------------------------|
 |-9-9-9-9-9-9-9-9-|-11-11-11-11S==6-6-6-6-x-|
 |-x-x-x-x-x-x-x-x-|--x--x--x--x---x-x-x-x-x-|
 |-7-7-7-7-7-7-7-7-|--9--9--9--9S==4-4-4-4-x-|
 |-----------------|-------------------------|

|
| E S E S E S S E E S S S S E S S S S
 
 |-----------------|-------------------------|
 |-----------------|-------------------------|
 |-4-4-4-4-4-4-4-4-|--8--8--8--8-x-6-6-6-x-x-|
 |-x-x-x-x-x-x-x-x-|--x--x--x--x-x-x-x-x-x-x-|
 |-2-2-2-2-2-2-2-2-|--6--6--6--6-x-4-4-4-x-x-|
 |-----------------|-------------------------|

[B5] E S E S E. S E [F#5]E S E S E. S E
 
 |-----------------------|----------------|
 |-----------------------|----------------|
 |--4--4--4--4--4---4--4-|----------------|
 |--4--4--4--4--4---4--4-|-4-4-4-4-4--4-4-|
 |--2--2--2--2--2---2--2-|-4-4-4-4-4--4-4-|
 |-----------------------|-2-2-2-2-2--2-2-|

|
| E S E S E. S E E S E S E. S E
 
 |-----------------------|----------------|
 |-----------------------|----------------|
 |-11-11-11-13-13--13-13S|=6-6-6-8-6--6-6-|
 |--x--x--x--x--x---x--x-|-x-x-x-x-x--x-x-|
 |--9--9--9-11-11--11-11S|=4-4-4-6-4--4-4-|
 |-----------------------|----------------|

|
| E S E S E. S E E S E S E. S E
 
 |-----------------------|----------------|
 |-----------------------|----------------|
 |--4--4--4--6--8---8--8S|=3-3-3-4-6--6-6-|
 |--x--x--x--x--x---x--x-|-x-x-x-x-x--x-x-|
 |--2--2--2--4--6---6--6S|=1-1-1-2-4--4-4-|
 |-----------------------|----------------|

[E5]E S E S E S S E [B5] E S S S S [F#5]E S S S S
 
 |-----------------|-------------------------||
 |-----------------|-------------------------||
 |-----------------|--4--4--4--4-4-----------||
 |-2-2-2-2-2-2-2-2-|--4--4--4--4-4-4-4-4-4-4-||
 |-2-2-2-2-2-2-2-2-|--2--2--2--2-2-4-4-4-4-4-||
 |-0-0-0-0-0-0-0-0-|---------------2-2-2-2-2-||

|
| E S E S E S S E E S S E E S S S S
 
 |-----------------|-------------------------||
 |-----------------|-------------------------||
 |-9-9-9-9-9-9-9-9-|-11-11-11-11S==6-6-6-6-6-||
 |-x-x-x-x-x-x-x-x-|--x--x--x--x---x-x-x-x-x-||
 |-7-7-7-7-7-7-7-7-|--9--9--9--9S==4-4-4-4-4-||
 |-----------------|-------------------------||

|
| E S E S E S S E E S S E E S S S S
 
 |-----------------|-------------------------||
 |-----------------|-------------------------||
 |-4-4-4-4-4-4-4-4-|--8--8--8--8---6-6-6-6-6-||
 |-x-x-x-x-x-x-x-x-|--x--x--x--x---x-x-x-x-x-||
 |-2-2-2-2-2-2-2-2-|--6--6--6--6---4-4-4-4-4-||
 |-----------------|-------------------------||

Bridge
[G#m7]Gtrs IV, VI[C#7sus2] [E5]
E E E E Q E E E E Q E. S S S E S E S
 
 |-------------|-4-4-4-4-----|-----------------------|
 |-------------|-4-4-4-4-----|-----------------------|
 |-4-4-4-4-----|-4-4-4-4-----|-9----9-9-9-9--9-9---9-|
 |-4-4-4-4-----|-6-6-6-6-----|-9----9-9-9-9--9-9---9-|
 |-x-x-x-x-----|-4-4-4-4-----|-7----7-7-7-7--7-7---7-|
 |-4-4-4-4-----|-------------|-----------------------|

|
| Gtr V
| E E E E E E E E E E E E E S E S E E E
 
 |-------------|-------------|----4-4---4------------|
 |-------------|-------------|----4-4---4-4\---------|
 |-4-4-4-4-----|-4-4-4-4-----|-----------------------|
 |-4-4-4-4-----|-4-4-4-4-----|---------------2---2---|
 |-------------|-------------|-----------------------|
 |-------------|-------------|-----------------------|

[E5]Gtr VI[G#m7] [C#7sus2] [E5]
E S E S E S S E E E E E E E E E E E E E E S E S E S E S
 
 |-----------------|-----------------|-4-4-4-4--------|--------------------|
 |-----------------|-----------------|-4-4-4-4--------|--------------------|
 |-9-9-9-9-9-9-9-9-|-4-4-4-4---------|-4-4-4-4--------|--------------------|
 |-9-9-9-9-9-9-9-9-|-4-4-4-4---------|-6-6-6-6--------|-2-2-2---2-2-2-2-2--|
 |-7-7-7-7-7-7-7-7-|-x-x-x-x---------|-4-4-4-4--------|-2-2-2---2-2-2-2-2--|
 |-----------------|-4-4-4-4---------|----------------|-0-0-0---0-0-0-0-0--|

|
| Gtr V
| E S E S E E E E E E E E E E E E E E E E E E E S E S
 
 |-----------------|-----------------|----------------|---4---2------------|
 |---------4-------|-----------------|----------------|---4---4---4S0-0-0--|
 |---4-4-4---4-----|-4-4-4-4---------|-4-4-4-4--------|--------------------|
 |-2-4-4-4-------4-|-4-4-4-4---------|-4-4-4-4--------|--------------------|
 |-----------------|-----------------|----------------|--------------------|
 |-----------------|-----------------|----------------|--------------------|

|
| Gtr IV
| W E E E E S E S E E E E Q W
 
 |-----------------|-----------------|----------------|--------------------|
 |-----------------|-----------------|-4-4-4-4--------|--------------------|
 |-----------------|-4-4-4-4-x-x---x-|-4-4-4-4--------|--------------------|
 |-----------------|-4-4-4-4-x-x---x-|-6-6-6-6--------|--------------------|
 |-----------------|-x-x-x-x---------|-4-4-4-4--------|--------------------|
 |-----------------|-4-4-4-4---------|---------/14\---|--------------------|

[E5]Gtrs IV, VI[G#m7] [C#7sus2] [E5]
E S E S E S S S S E E E E E E E E E E E E E S E S E S S S S
 
 |---------------------|-------------|-4-4--4-4-4--4-|------------------------|
 |---------------------|-------------|-4-4--4-4-4--4-|------------------------|
 |---------------------|-4-4-4-4-4-4-|-4-4--4-4-4--4-|-9--9-9-----9-9-9-9-9-9-|
 |-2-2-2---2-2-x-x-x-x-|-4-4-4-4-4-4-|-6-6--6-6-6--6-|-9--9-9-----9-9-9-9-9-9-|
 |-2-2-2---2-2-x-x-x-x-|-x-x-x-x-x-x-|-4-4--4-4-4--4-|-7--7-7-----7-7-7-7-7-7-|
 |-0-0-0---0-0-x-x-x-x-|-4-4-4-4-4-4-|---------------|------------------------|

|
| Gtr V
| E S S S S E E E E E E E E E E E E E E E E. S +S S E S E S
 
 |---------------------|-------------|---------------|------------------------|
 |-0-0-4p0-0-4---------|-------------|---------------|------------------------|
 |-------------4-------|-------------|---------------|-9----9-(9)-9-9-9-9---9-|
 |-----------------4---|-----4-----4-|---------------|-9----9-(9)-9-9-9-9---9-|
 |---------------------|---2-----2---|-4-2-/6-4-2-/6-|-7----7-(7)-7-7-7-7---7-|
 |---------------------|-4-----4-----|---------------|------------------------|

[E5]E S E S E S S S S [G#m7]E E E E E E [C#7sus2]E E E E E E [E5]E S E S E S S S S
 
 |-------------------|-------------|-4-4--4-4-4--4-|----------------------|
 |-------------------|-------------|-4-4--4-4-4--4-|----------------------|
 |-9-9-9-9-9-9-9-9-9-|-4-4-4-4-4-4-|-4-4--4-4-4--4-|-9-9-9---9-9-9-9-9-9--|
 |-9-9-9-9-9-9-9-9-9-|-4-4-4-4-4-4-|-6-6--6-6-6--6-|-9-9-9---9-9-9-9-9-9--|
 |-7-7-7-7-7-7-7-7-7-|-x-x-x-x-x-x-|-4-4--4-4-4--4-|-7-7-7---7-7-7-7-7-7--|
 |-------------------|-4-4-4-4-4-4-|---------------|----------------------|

|
| E S E S E E E E E E E E E E E E E E E E S S S S E S S E
 
 |-------------------|-------------|---------------|----------------------|
 |-------------------|-------------|---------------|-9-9-9-9-9-9-9-9-9----|
 |-9-9-9-9-9-9---9---|-------------|---------------|-9-9-9-9-9-9-9-9-9----|
 |-9-9-9-9-9-9---9---|-----4-----4-|---------------|-9-9-9-9-9-9-9-9-9----|
 |-7-7-7-7-7-7---7---|---2-----2---|-4-2-/6-4-2-/6-|-7-7-7-7-7-7-7-7-7----|
 |-------------------|-4-----4-----|---------------|----------------------|

Chorus
[G5]Gtr VI[B5]
E S E S E S S S S E S E S E. S E
 
 |-------------------------------||-----------------------|
 |-------------------------------||-----------------------|
 |-12-12-12----12-12-12-12-12-12-||--4--4--4--4--4---4--4-|
 |-12-12-12----12-12-12-12-12-12-||--4--4--4--4--4---4--4-|
 |-10-10-10----10-10-10-10-10-10-||--2--2--2--2--2---2--2-|
 |-------------------------------||-----------------------|

|
| Gtr IV
| E S S S S E E E E S E S E. S E
 
 |-------------------------------||-----------------------|
 |-------------------------------||-----------------------|
 |-12-12-12-12-12-12-12----12----||-11-11-11-13-13--13-13S|
 |-12-12-12-12-12-12-12----12----||--x--x--x--x--x---x--x-|
 |-10-10-10-10-10-10-10----10----||--9--9--9-11-11--11-11S|
 |-------------------------------||-----------------------|

|
| Gtr V
| W E S E S E. S E
 
 |-------------------------------||-----------------------|
 |-------------------------------||-----------------------|
 |-------------------------------||--4--4--4--6--8---8--8S|
 |-------------------------------||--x--x--x--x--x---x--x-|
 |-------------------------------||--2--2--2--4--6---6--6S|
 |-------------------------------||-----------------------|

[F#5]E S E S E. S E [E5]E S E S E S S E [B5] E S S S S [F#5]E S S S S
 
 |----------------|-----------------|----------------------------|
 |----------------|-----------------|----------------------------|
 |----------------|-----------------|--4--4--4--4--x-------------|
 |-4-4-4-4-4--4-4-|-2-2-2-2-2-2-2-2-|--4--4--4--4--x-4-4-4-4-x---|
 |-4-4-4-4-4--4-4-|-2-2-2-2-2-2-2-2-|--2--2--2--2--x-4-4-4-4-x---|
 |-2-2-2-2-2--2-2-|-0-0-0-0-0-0-0-0-|----------------2-2-2-2-x---|

|
| E S E S E. S E E S E S E S S E E S S E E S S S S
 
 |----------------|-----------------|----------------------------|
 |----------------|-----------------|----------------------------|
 |-6-6-6-8-6--6-6-|-9-9-9-9-9-9-9-9-|-11-11-11-11\---6-6-6-6-x---|
 |-x-x-x-x-x--x-x-|-x-x-x-x-x-x-x-x-|--x--x--x--x----x-x-x-x-x---|
 |-4-4-4-6-4--4-4-|-7-7-7-7-7-7-7-7-|--9--9--9--9\---4-4-4-4-x---|
 |----------------|-----------------|----------------------------|

|
| E S E S E. S E E S E S E S S E E S S S S E S S S S
 
 |----------------|-----------------|----------------------------|
 |----------------|-----------------|----------------------------|
 |-3-3-3-4-6--6-6-|-4-4-4-4-4-4-4-4-|--8--8--8--8--x-6-6-6-x-x---|
 |-x-x-x-x-x--x-x-|-x-x-x-x-x-x-x-x-|--x--x--x--x--x-x-x-x-x-x---|
 |-1-1-1-2-4--4-4-|-2-2-2-2-2-2-2-2-|--6--6--6--6--x-4-4-4-x-x---|
 |----------------|-----------------|----------------------------|

[B5] [F#5] [E5] [B5] [F#5]  
 
 PM------|

E S E S E. S E E S E S E. S E E E E E E E E S S E E S S S S
 
 |-----------------------|----------------|-------------|-----------------------|
 |-----------------------|----------------|-------------|-----------------------|
 |--4--4--4--4--4---4--4-|----------------|-------------|--4--4--4--4-----------|
 |--4--4--4--4--4---4--4-|-4-4-4-4-4--4-4-|-2-----------|--4--4--4--4-4-4-4-4-4-|
 |--2--2--2--2--2---2--2-|-4-4-4-4-4--4-4-|-2-2-2-2-2-2-|--2--2--2--2-4-4-4-4-4-|
 |-----------------------|-2-2-2-2-2--2-2-|-0-0-0-0-0-0-|-------------2-2-2-2-2-|

|
 
 | PM------|

| E S E S E. S E E S E S E. S E E E E E E E E S S E E S S S S
 
 |-----------------------|----------------|-------------|-----------------------|
 |-----------------------|----------------|-------------|-----------------------|
 |-11-11-11-13-13--13-13S|=6-6-6-8-6--6-6-|-9-9-9-9-9-9-|-11-11-11-11S6-6-6-6-6-|
 |--x--x--x--x--x---x--x-|-x-x-x-x-x--x-x-|-x-x-x-x-x-x-|--x--x--x--x-x-x-x-x-x-|
 |--9--9--9-11-11--11-11S|=4-4-4-6-4--4-4-|-7-7-7-7-7-7-|--9--9--9--9S4-4-4-4-4-|
 |-----------------------|----------------|-------------|-----------------------|

|
 
 | PM------|

| E S E S E. S E E S E S E. S E E E E E E E E S S E E S S S S
 
 |-----------------------|----------------|-------------|-----------------------|
 |-----------------------|----------------|-------------|-----------------------|
 |--4--4--4--6--8---8--8S|=3-3-3-4-6--6-6-|-9-9-9-9-9-9-|--8--8--8--8-6-6-6-6-6-|
 |--x--x--x--x--x---x--x-|-x-x-x-x-x--x-x-|-x-x-x-x-x-x-|--x--x--x--x-x-x-x-x-x-|
 |--2--2--2--4--6---6--6S|=1-1-1-2-4--4-4-|-7-7-7-7-7-7-|--6--6--6--6-4-4-4-4-4-|
 |-----------------------|----------------|-------------|-----------------------|

[B5]Gtr VI[F#5]
E S E S E. S E E S E S E. S E
 
 |--------------------------------|--------------------------------|
 |--------------------------------|--------------------------------|
 |--4--4--4-----4--4------4--4----|--------------------------------|
 |--4--4--4-----4--4------4--4----|--4--4--4-----4--4------4--4----|
 |--2--2--2-----2--2------2--2----|--4--4--4-----4--4------4--4----|
 |--------------------------------|--2--2--2-----2--2------2--2----|

|
| Gtr II
| E S S S S E S S S S E S S S S E S S S S
 
 |--------------------------------|--------------------------------|
 |-------19-------17-----16-------|-------19-------17-----16-------|
 |-16-16----16-16-----16----16-16-|-15-15----15-15-----15----15-15-|
 |--------------------------------|--------------------------------|
 |--------------------------------|--------------------------------|
 |--------------------------------|--------------------------------|

|
| Gtrs IV, V
| W W
 
 |--------------------------------|--------------------------------|
 |--------------------------------|--------------------------------|
 |--------------------------------|--------------------------------|
 |--------------------------------|--------------------------------|
 |--------------------------------|--------------------------------|
 |--------------------------------|--------------------------------|

[E5] E S E S E S S S S [E5] E S E S E S S S S
 
 |-------------------------------|-------------------------------|
 |-------------------------------|-------------------------------|
 |-------------------------------|-------------------------------|
 |--2--2--2-----2--2--2--2--2--2-|--2--2--2-----2--2--2--2-2-2---|
 |--2--2--2-----2--2--2--2--2--2-|--2--2--2-----2--2--2--2-2-2---|
 |--0--0--0-----0--0--0--0--0--0-|--0--0--0-----0--0--0--0-0-0---|

|
| E S S S S E S S S S E S S S S E S S S S
 
 |-------14----------------------|-------------------------------|
 |----------------17----16-------|-------17-------16----14-------|
 |-13-13----13-13----13----13-13-|-13-13----13-13----13----x-x---|
 |-------------------------------|-------------------------------|
 |-------------------------------|-------------------------------|
 |-------------------------------|-------------------------------|

|
| E S E S E S S S S E S E S E S S S S
 
 |-------------------------------|-------------------------------|
 |-------------------------------|-------------------------------|
 |--9--9--9-----9--9--9--9--9--9-|--9--9--9-----9--9--9--9-9-9---|
 |--9--9--9-----9--9--9--9--9--9-|--9--9--9-----9--9--9--9-9-9---|
 |--7--7--7-----7--7--7--7--7--7-|--7--7--7-----7--7--7--7-7-7---|
 |-------------------------------|-------------------------------|

[B5] E S E S E. S E [F#5] E S E S E. S E
 
 |-------------------------------|------------------------------|
 |-------------------------------|------------------------------|
 |--4--4--4-----4--4------4--4---|------------------------------|
 |--4--4--4-----4--4------4--4---|--4--4--4-----4--4------4-4---|
 |--2--2--2-----2--2------2--2---|--4--4--4-----4--4------4-4---|
 |-------------------------------|--2--2--2-----2--2------2-2---|

|
| E S S S S E S S S S E S S S S E S S S S
 
 |-------------------------------|------------------------------|
 |-------19-------17-----16------|-------19-------17-----16-----|
 |-16-16----16-16-----16----16-x-|-15-15----15-15-----15----x-x-|
 |-------------------------------|------------------------------|
 |-------------------------------|------------------------------|
 |-------------------------------|------------------------------|

|
| E S E S E. S E E S E S E. S E
 
 |-------------------------------|------------------------------|
 |-------------------------------|------------------------------|
 |-11-11-11----13-13-----13-13S==|==6--6--6-----8--6------6-6---|
 |--x--x--x-----x--x------x--x---|--x--x--x-----x--x------x-x---|
 |--9--9--9----11-11-----11-11S==|==4--4--4-----6--4------4-4---|
 |-------------------------------|------------------------------|

[E5] E S E S E S S S S [B5] E S S E [F#5] E S S S S
 
 |------------------------------|----------------------------------||
 |------------------------------|----------------------------------||
 |------------------------------|--4--4---4--4---------------------||
 |--2--2--2-----2--2--2--2--2-2-|--4--4---4--4--4-----4--4--4--4---||
 |--2--2--2-----2--2--2--2--2-2-|--2--2---2--2--4-----4--4--4--4---||
 |--0--0--0-----0--0--0--0--0-0-|---------------2-----2--2--2--2---||

|
| E S S S S E S S S S E E E S S S S S S
 
 |------------------------------|----------------------------------||
 |-------17-------16----14------|-16-16\-------14-14-14-14-14-14---||
 |-13-13----13-13----13----13-x-|-13-13\-------11-11-11-11-11-11---||
 |------------------------------|----------------------------------||
 |------------------------------|----------------------------------||
 |------------------------------|----------------------------------||

|
| E S E S E S S E E S S E E S S S S
 
 |------------------------------|----------------------------------||
 |------------------------------|----------------------------------||
 |--9--9--9-----9--9--9--9--9---|-11-11--11-11S=6-----6--6--6--6---||
 |--x--x--x-----x--x--x--x--x---|--x--x---x--x--x-----x--x--x--x---||
 |--7--7--7-----7--7--7--7--7---|--9--9---9--9S=4-----4--4--4--4---||
 |------------------------------|----------------------------------||

Outro
[G#m]Gtr I[F#6sus4] [Emaj7] [F#6sus4] [G#m] [F#6sus4] [Emaj7] [F#6sus4]
Q. E E E +E Q +Q. Q. E E E +E Q Q.
 
 |--------------|-----------------|--------------|------------------|
 |-4------------|-----------------|-4----------7-|-(7)-4------------|
 |--------6p4-3-|-(3)-4---(4)-----|--------6p4---|---------6--------|
 |--------------|-----------------|--------------|------------------|
 |--------------|-----------------|--------------|------------------|
 |--------------|-----------------|--------------|------------------|

|
| Gtr II
| E E E E E E E E E E E E E E E E E E E E E E S S E
 
 |--------------|-----------------|--------------|------------------|
 |----4-----4---|-----4-------4---|----4-----4---|-----4------4-----|
 |----4-----4---|-----4-------4---|----4-----4---|-----4--------4---|
 |-6----6-4---4-|--2----2--4----4-|-6----6-4---4-|--2----2-4------4-|
 |--------------|-----------------|--------------|------------------|
 |--------------|-----------------|--------------|------------------|

|
| Gtr III
| E E E E E E E E E E E E E E E E E E E E E E E E
 
 |--------------|-----------------|--------------|------------------|
 |----4-----4---|-----4-------4---|----4-----4---|-----4------4-----|
 |----4-----4---|-----4-------4---|----4-----4---|-----4------4-----|
 |-6----6-4---4-|--2----2--4----4-|-6----6-4---4-|--2----2-4------4-|
 |--------------|-----------------|--------------|------------------|
 |--------------|-----------------|--------------|------------------|

[G#m]Gtr II[F#6sus4] [Emaj7] [F#6sus4] [G#m] [F#6sus4] [B5]
E E E E E E E E E a E E E E E E E E E Q. +Q.
 
 |-------------|---------------|-------------|------------*|
 |---4-----4---|---4-------4---|---4-----4---|------------*|
 |---4-----4---|---4-------4---|-----4---4---|-x----(x)---*|
 |-6---6-4---4-|-2---2-2s4---4-|-6-----4---4-|-4----(4)---*|
 |-------------|---------------|-------------|-2----(2)---*|
 |-------------|---------------|-------------|------------*|

Duration Legend
 
 ---------------
 W - whole; H - half; Q - quarter; E - 8th; S - 16th; T - 32nd; X - 64th; a - acciaccatura

+ - note tied to previous; . - note dotted; .. - note double dotted
Uncapitalized letters represent notes that are staccato (1/2 duration)
Irregular groupings are notated above the duration line
Duration letters will always appear directly above the note/fret number it represents the
duration for. Duration letters with no fret number below them represent rests. Multi-
bar rests are notated in the form Wxn, where n is the number of bars to rest for. Low
melody durations appear below the staff
Tablature Legend
 
 ----------------

h - hammer-on
p - pull-off
b - bend
pb - pre-bend
r - bend release (if no number after the r, then release immediately)
/\ - slide into or out of (from/to "nowhere")
s - legato slide
S - shift slide
<n> - natural harmonic
(n) - artificial harmonic
n(n) - tapped harmonic
~ - vibrato
tr - trill
T - tap
TP - trem. picking
PM - palm muting
\n/ - tremolo bar dip; n = amount to dip
\n - tremolo bar down
n/ - tremolo bar up
/n\ - tremolo bar inverted dip
= - hold bend; also acts as connecting device for hammers/pulls
<> - volume swell (louder/softer)
x - on rhythm slash represents muted slash
o - on rhythm slash represents single note slash
Misc Legend
 
 -----------

| - bar
|| - double bar
||o - repeat start
o|| - repeat end
*| - double bar (ending)
: - bar (freetime)
$ - Segno
& - Coda
Tempo markers - <E/E./Q/Q./H/H.> = BPM(8/16=s8/s16), where s8 = swing 8ths, s16 = swing 16ths
***************************************************************************************
* Generated using Power Tab Editor by Brad Larsen - http://powertab.guitarnetwork.org *
***************************************************************************************

Important: The song above is NOT stored on the Chordie server. The original song is hosted at www.xguitar.com. Chordie works as a search engine and provides on-the-fly formatting. Chordie does not index songs against artists'/composers' will. To remove this song please click here.

Text color:
Chord color:
Chord grids: 
Font size:    
Page size: 

B5 C#7sus2 E E5 Emaj7 F#5 F#6sus4 G#m G#m7 G5
Rate #2 of 3 versions

Login - add to songbook

SHARE PAGE  



You need to log in to post comments