Guitar Tabs, Chords and Lyrics
Server problems seems to be fixed. Chordie has been experiencing problems with songs disappearing. These issues now seems to be fixed, but still verifying the fix. If you find anything strange, please email admin@chordie.com.


Hit or Miss  New Found Glory

This song is really awesome. It has lots of palm mutes in it. You can palm mute your guitar by resting your pinky on the bridge, then you can strum it with a pick. It sounds cool and it's really easy. It's played in normal tuning.
( ^ ) = palm mute the chord
( x ) = play the chord, but do not push down
Intro:
 
 ------------------------------------------------------------------
 ------------------------------------------------------------------
 -9-9-x-9------------------------------------------------------- Play this three times with a very fast
 -9-9-x-9--9-9-x-9-11-11-x-11-7-7-x-7--------------- and continuous motion.
 -7-7-x-7--9-9-x-9-11-11-x-11-7-7-x-7--------------
 -------------7-7-x-7--9---9-x--9--5-5-x-5--------------

Brid[E]ge:[B] [C] [A]
 
 ----------------------------------------------------------------
 ----------------------------------------------------------------
 -9-9-9-9------------------------------------------------------ After the third time you play the
 -9-9-9-9-9-9-9-9-11-11-11-11-7-7-7-7-------------- intro, play this. It is all palm muted.
 -7-7-7-7-9-9-9-9-11-11-11-11-7-7-7-7-------------- Play the intro three more times after
 ------------7-7-7-7--9---9--9---9--5-5-5-5-------------- this.

^ ^ ^ ^ ^ ^ ^ ^ ^ ^ ^ ^ ^ ^ ^ ^
[E] [B] [C] [A] 
 
 --------------------------
 --------------------------
 ---9--------------------
 ---9-----9------7------ Play this after you play the intro three times more. Let each chord
 ---7-----9------7------- ring.
 ----------7------5------

Melody:
 
 --------------------------------------------------------------------------------------------
 --------------------------------------------------------------------------------------------
 ----------------------4-4-4----4-4-4----6-6-6---6-6-6---4-4--4---4--4-4--------
 -2-2-2---2-2-2----4-4-4----4-4-4----6-6-6---6-6-6---4-4--4---4--4-4-------
 -2-2-2---2-2-2----2-2-2----2-2-2----4-4-4---4-4-4---2-2--2---2--2-2-------
 -0-0-0---0-0-0------------------------------------------------------------------------

^ ^ ^ ^ ^ ^ ^ ^ ^ ^ ^ ^ ^ ^ ^ ^ ( First two notes are
E B C# B palm muted. )
 
 -------------------------------------------------------------------------------------------
 -------------------------------------------------------------------------------------------
 ----------------------4-4-4---4-4-4---6-6-6---6-6-6---9-9-9-9-9-9-9-9------
 -2-2-2---2-2-2----4-4-4---4-4-4---6-6-6---6-6-6---9-9-9-9-9-9-9-9------- After playing this, just
 -2-2-2---2-2-2----2-2-2---2-2-2---4-4-4---4-4-4---7-7-7-7-7-7-7-7----- strum these chords.
 -0-0-0---0-0-0------------------------------------------------------------------------ ( It would take too long

^ ^ ^ ^ ^ ^ ^ ^ ^ ^ ^ ^ to type it, so figure it
E B C# E out yourself. )
Chorus:
 
 --------------------------------------------------------------------
 ---------------------------------------------------------------------
 --9-9-9------------------------------------------------------------
 --9-9-9--9-9-9-11-11-11-11-11-11--11--11------------
 --7-7-7--9-9-9-11-11-11-11-11-11--11--11-------------
 -----------7-7-7---9--9--9---9---9---9---9----9--------------

^ ^ ^ ^ ^ ^ ^ ^ ^ ^ ^ ^
[E] [B] [B]  
 
 --------------------------------------------
 --------------------------------------------
 -9-9-9-------------------------------------
 -9-9-9-9-9-9--7-7-7-7-7-7-7-7-----
 -7-7-7-9-9-9--7-7-7-7-7-7-7-7-----
 ----------7-7-7-5-5-5-5-5-5-5-5-------

^ ^ ^ ^ ^ ^ ^ ^ ^ ^ ^ ^
[E] [B] [A]  
That is pretty much the whole song. Please tell me if you see any problems with this tab so I can improve it.

Important: The song above is NOT stored on the Chordie server. The original song is hosted at www.xguitar.com. Chordie works as a search engine and provides on-the-fly formatting. Chordie does not index songs against artists'/composers' will. To remove this song please click here.

Text color:
Chord color:
Chord grids: 
Font size:    
Page size: 

A B C E
Rate #1 of 3 versions

Jango Player

Login - add to songbook

SHARE PAGE  



You need to log in to post comments