Guitar Tabs, Chords and Lyrics
Major upgrade!! After one year development the new version of Chordie is now online! Please give feedback.


Caught With Your Pants Down  AC/DC

Intro:
 
 |--------------------------|-------------------------|-------------------------|
 |--------------------------|-------------------------|-------------------------|
 |--------------------------|-------------------------|-------------------------|
 |--------------------------|--------------7--6--5----|-------------------------|
 |--7--------7--------7-----|-----7--------7--6--5----|--7--------7--------7----|
 |--4--0--0--5--0--0--6--0--|--0--7--0--0-------------|--4--0--0--5--0--0--6--0-|
 |-------------------------|--------------------------|-------------------------|
 |-------------------------|--------------------------|-------------------------|
 |-------------------------|--------------------------|-------------------------|
 |--------------7--6--5----|--------------------------|--------------7--6--5----|
 |-----7--------7--6--5----|--7--------7--------7-----|-----7--------7--6--5----|
 |--0--7--0--0-------------|--4--0--0--5--0--0--6--0--|--0--7--0--0-------------|
 |------------------------|------------|-------------------|
 |-----3-------3-------2--|------------|-------------------|
 |-----4-------3-------2--|------------|-------------------|
 |------------------------|------------|--2----------------|
 |--2-------2-------------|-------2----|--2----------------|
 |--0-------0-------0-----|----0--3----|--0----------------|
 |----------------------|------------------|----------------------|
 |----------------------|------------------|----------------------|
 |-------------2--------|------------------|-------------2--------|
 |-------------2--0--2--|------------------|-------------2--0--2--|
 |----------2--0-----2--|------------------|----------2--0-----2--|
 |----------0-----3--0--|------------------|----------0-----3--0--|

Runnin' round...
 
 |------------------|----------------------|------------------|
 |------------------|----------------------|------------------|
 |------------------|-------------2--------|------------------|
 |------------------|-------------2--0--2--|------------------|
 |------------------|----------2--0-----2--|------------------|
 |------------------|----------0-----3--0--|------------------|

goin' out...
 
 |----------------------|------------------|----------------------|
 |----------------------|------------------|----------------------|
 |-------------2--------|------------------|-------------2--------|
 |-------------2--0--2--|------------------|-------------2--0--2--|
 |----------2--0-----2--|------------------|----------2--0-----2--|
 |----------0-----3--0--|------------------|----------0-----3--0--|

playin'... bad cards...
 
 |------------------|----------------------|------------------|
 |------------------|----------------------|------------------|
 |------------------|-------------2--------|------------------|
 |------------------|-------------2--0--2--|------------------|
 |------------------|----------2--0-----2--|------------------|
 |------------------|----------0-----3--0--|------------------|

wanna dance wanna sing
 
 |----------------------|----------------------|----------------------|
 |----------------------|----------------------|----------------------|
 |-------------2--------|-------------2--------|-------------2--------|
 |-------------2--0--2--|-------------2--0--2--|-------------2--0--2--|
 |----------2--0-----2--|----------2--0-----2--|----------2--0-----2--|
 |----------0-----3--0--|----------0-----3--0--|----------0-----3--0--|

whip you... to-
 
 |------------------|------------------|--------------------------|
 |------------------|------------------|--------------------------|
 |------------------|------------------|--------------------------|
 |------------------|------------------|--------------------------|
 |------------------|------------------|--2--2--2--3--3--3--4--4--|
 |------------------|------------------|--3--3--3--3--3--3--3--3--|

night... out drivin'...
 
 |--------------------------|--------------------------|--------------------------|
 |--------------------------|--------------------------|--------------------------|
 |-----0--------------------|--------------------------|--------------------------|
 |-----0--0--0--0--0--0-----|--2--2--2--2--2--2--2--2--|--2--2--2--2--2--2--2--2--|
 |--4--------------------0--|--4--0--0--5--0--0--6--0--|--0--0--0--0--0--0--0--0--|
 |--3-----3--3--3--3--3-----|--------------------------|--------------------------|

maybe I'll get beat up
 
 |--------------------------|--------------------------|--------------------------|
 |--------------------------|--------------------------|--------------------------|
 |--2--2--2--2--2--2--2--2--|--2--2--2--2--2--2--2--2--|--2--2--2--2--2--2--2--2--|
 |--2--2--2--2--2--2--2--2--|--2--2--2--2--2--2--2--2--|--2--2--2--2--2--2--2--2--|
 |--0--0--0--0--0--0--0--0--|--0--0--0--0--0--0--0--0--|--0--0--0--0--0--0--0--0--|
 |--------------------------|--------------------------|--------------------------|

caught with... caught with...
 
 |------------------|--------------------------|------------------------|
 |------------------|--------------------------|------------------------|
 |------------------|--4--3--2-----2--1--0-----|------------------------|
 |------------------|--4--3--2-----2--1--0-----|----2--------2----2-----|
 |------------------|--------------------------|----2--2--2--2----2--0--|
 |------------------|-----------0-----------0--|-------0--0--0----0--0--|

caught with...
 
 |--------------------------|------------------------|--------------------------|
 |--------------------------|------------------------|--------------------------|
 |--4--3--2-----2--1--0-----|------------------------|--4--3--2-----2--1--0-----|
 |--4--3--2-----2--1--0-----|----2--------2----2-----|--4--3--2-----2--1--0-----|
 |--------------------------|----2--2--2--2----2--0--|--------------------------|
 |-----------0-----------0--|-------0--0--0----0--0--|-----------0-----------0--|

caught with...
 
 |------------------------|------------------------|---------------------|
 |------------------------|-----3-------3-------2--|---------------------|
 |------------------------|-----4-------3-------2--|---------------------|
 |----2--------2----2-----|------------------------|-------0----2--------|
 |----2--2--2--2----2--2--|------------------------|------------2--------|
 |-------0--0--0----0--0--|--0-------0-------0-----|----0--3----0--------|

lining up... giong out...
 
 |------------------------|-----------------------|------------------------|
 |------------------------|-----------------------|------------------------|
 |------------------------|-----------------------|--2--1--0---------------|
 |-----2----------2-------|----2------------------|--2--1--0---------------|
 |--2--0-----2----2----2--|----2-------2----2-----|----------------2-------|
 |--0-----3--0----0----0--|----0----0--0----0--0--|-----------0----0----0--|

gettin' caught...
 
 |-----------------------|------------------------|-----------------------|
 |-----------------------|------------------------|-----------------------|
 |-----------------------|------------------------|-----------------------|
 |----2-------2----------|-----2----------2-------|----2-------2----------|
 |----2-------2----2-----|--2--0----------2-------|----2-------2----2-----|
 |----0----0--0----0--0--|--0-----3--0----0----0--|----0----0--0----0--0--|

take it hard... woman...
 
 |------------------------|-----------------------|--------------------------|
 |------------------------|-----------------------|--------------------------|
 |--2--1--0---------------|-----------------------|--------------------------|
 |--2--1--0-------2-------|----2-------2----------|--------------------------|
 |----------------2-------|----2-------2----------|--7--7--7--7--7--7--7--7--|
 |-----------0----0----0--|----0----0--0----0--0--|--4--0--0--5--0--0--6--0--|

givin' it...
 
 |--------------------------|--------------------------|------------------------|
 |--------------------------|--------------------------|------------------------|
 |--------------------------|--------------------------|--------------2---------|
 |--------------------------|--------------------------|--------------2---------|
 |--7--7--7--7--4--2--------|--7--7--7--7--7--7--7--7--|--7--7--7--7--0---------|
 |--0--7--0--0--5--3--0--0--|--4--0--0--5--0--0--6--0--|--0--7--0--0---------0--|

just like... to-
 
 |--------------------------|--------------------------|--------------------------|
 |--------------------------|--------------------------|--------------------------|
 |--------------------------|--------------------------|--------------------------|
 |--------------------------|--------------------------|--------------------------|
 |--7--7--7--7--7--7--7--7--|--7--7--7--7--4--2--------|--2--------3--------4-----|
 |--4--0--0--5--0--0--6--0--|--0--7--0--0--5--3--0--0--|--3--3--3--3--3--3--3--3--|

night... out drivin'...
 
 |--------------------------|--------------------------|--------------------------|
 |--------------------------|--------------------------|--------------------------|
 |--------------------------|--------------------------|--------------------------|
 |-----0--0--0--0--0--0-----|--7--------7--------7-----|-----7--------2--2--2--2--|
 |-----------------------0--|--0--0--0--5--0--0--6--0--|--0--7--0--0--0--0--0--0--|
 |--3--3--3--3--3--3--3-----|--------------------------|--------------------------|

maybe I'll get beat up
 
 |--------------------------|--------------------------|--------------------------|
 |--------------------------|--------------------------|--------------------------|
 |--2--2--2--2--2--2--2--2--|--2--2--2--2--2--2--2--2--|--2--2--2--2--2--2--2--2--|
 |--2--2--2--2--2--2--2--2--|--2--2--2--2--2--2--2--2--|--2--2--2--2--2--2--2--2--|
 |--0--0--0--0--0--0--0--0--|--0--0--0--0--0--0--0--0--|--0--0--0--0--0--0--0--0--|
 |--------------------------|--------------------------|--------------------------|

caught... chorus:
 
 |------------------|--------------------------|------------------|
 |------------------|--------------------------|------------------|
 |------------------|--4--3--2-----2--1--0-----|------------------|
 |------------------|--4--3--2-----2--1--0-----|------------------|
 |------------------|--------------------------|------------------|
 |------------------|-----------0-----------0--|------------------|

after 2nd chorus play straight A and B to solo:
[A] [B]  
 
 |-------------------|-------------------|
 |-------------------|-------------------|
 |--4----------------|--2----------------|
 |--4----------------|--2----------------|
 |--2----------------|--0----------------|
 |-------------------|-------------------|

bridge to solo:
 
 |--------------------------|-----------------------|
 |--------------------------|----3-------3-------2--|
 |--------------------------|----4-------3-------2--|
 |--------------------------|-----------------------|
 |-----------------------2--|-----------------------|
 |--7--6--5--0--5--4--3--0--|---------0-------0-----|

solo:
 
 |---------------------|----------------------||
 |---------------------|----------------------||
 |-------0-------------|----------------------||
 |-------0----2--------|-----2--0--2----------||
 |------------2--------|--2--0-----2----------||
 |----0-------0--------|--0-----3--0----------||

Tablature by Clemens Fehlow.

Important: The song above is NOT stored on the Chordie server. The original song is hosted at www.xguitar.com. Chordie works as a search engine and provides on-the-fly formatting. Chordie does not index songs against artists'/composers' will. To remove this song please click here.

Text color:
Chord color:
Chord grids: 
Font size:    
Page size: 

A B
Rate #3 of 4 versions

Login - add to songbook

SHARE PAGE  




You need to log in to post comments