Guitar Tabs, Chords and Lyrics
Major upgrade!! After one year development the new version of Chordie is now online! Please give feedback.


Put the Finger on You  AC/DC

PUT THE FINGER ON YOU - AC/DC
by Stephan Mueller (s.mueller@hit.handshake.de)
Pattern 1
[A5] [G5/A] [D5/A] [D5/A] [A] [G5/A] [D/A]  
 
 e|----------------3--3--2--|-------------------|---------------3--3--2-|
 b|-5--5--5--5--5--3--3--3--|-3--3--3--3--3--3--|5--5--5--5--5--3--3--3-|
 g|-2--2--2--2--2-----------|-2--2--2--2--2--2--|2--2--2--2--2----------|
 D|-------------------------|-------------------|-----------------------|
 A|-0--0--0--0--0--0--0--0--|-0--0--0--0--0--0--|0--0--0--0--0--0--0--0-|
 E|-------------------------|-------------------|-----------------------|

endpattern Pattern 2 ....p.m...... endpattern
[D5/A] [A5] [G5/A] [D/A] [D5/A]  
 
 e|------------------| e|------------------------|----------------------|
 b|-3--3--3--3--3--3-| b|----------------------3-|----------------------|
 g|-2--2--2--2--2--2-| g|-2--2--2--2--2--0--0--2-|-2--2--2--2--2--2-2---|
 D|------------------| D|-2--2--2--2--2--0--0--0-|-0--0--0--0--0--0-0---|
 A|-0--0--0--0--0--0-| A|-0--0--0--0--0--0--0--0-|-0--0--0--0--0--0-0---|
 E|------------------| E|------------------------|----------------------|

Verse: Play patt.1 four times w/patt.2 (2nd time only!)
w/patt.2 (3 times) (2nd time only!)
Pattern 3a endpattern
[B] [E] [B] [E]  
 
 e|------------------------|------------------------\
 b|-4--4--5--5--5--4--4--5-|5--5--5--5--5--5--5--5--|
 g|-4--4--4--4--4--4--4--4-|4--4--4--4--4--4--4--4--|
 D|-4--4--6--6--6--4--4--6-|6--6--6--6--6--6--6--6--| I got fire...
 A|------------------------|------------------------|
 E|------------------------|------------------------|

Pattern 3b endpattern|
 
 e|------------------------|------------------------| 2 x
 b|------------------------|------------------------|
 g|----------------------1-|---1--1-----1--1--1-----|
 D|-4-----6-----6--4-----2-|---2--2-----2--2--2-----|
 A|-2-----2-----2--2-----2-|---2--2-----2--2--2-----|
 E|----------------------0-|---0--0-----0--0--0-----/

I put the Finger... Pattern 4a(Gtr.2) Pattern 4b (Gtr.1)
G D G D A E endpatt G D G D A endpatt
 
 e|-3--2-----3--2-----|--------------| e|-------------------|--------------|
 b|-3--3-----3--3---x-|--------------| b|12-------12-10--14-|-14-14---12---|
 g|-0--2-----0--2---x-|-2--2---1-----| g|12-11-11-12-11--14-|-14-14---13---|
 D|-0--0--0--0--0---x-|-2--2---2-----| D|12-12-12-12-12--14-|-14-14---14---|
 A|-2--------2--------|-0--0---2-----| A|-------------------|--------------|
 E|-3--------3--------|--------0-----| E|-------------------|--------------|

Pattern 4a + 4b (4 times)
Then I put the finger...
[G] [D] [G] [D] [A] [G] [D] [G] [D] [A] [A] [E] [A] [E] [A] [E] [A] [E]  
 
 e|-3-2---3--2----|3-2---3--2----|---------------|---------------|
 b|-3-3---3--3--x-|3-3---3--3--x-|---------------|---------------|
 g|-0-2---0--2--x-|0-2---0--2--x-|-2-----2-------|-2-----2-------|
 D|-0-0-0-0--0--x-|0-0-0-0--0--x-|-2-2-2-2--2--2-|-2-2-2-2--2--2-|
 A|-2-----2-------|2-----2-------|-0-2-2-0--2--2-|-0-2-2-0--2--2-|
 E|-3-----3-------|3-----3-------|---0-0----0--0-|---0-0----0--0-|

Solo: w/Patt.1 & 2 (4 x)
[A5] [G5/A] [D/A] ~[D5/A]~~~~ [A5]. [G5/A] [D/A] [D5/A] b [A5] b
 
 e|---5---5-------------------------------------------------------------17-|
 b|---5---5---5---7-----5---7---5---7--5---7--5---/-14---------17----17----|
 g|-----------5---7-----5---7---5---7--5---7--5---/-14--16-18-----16-18----|
 D|/7---------------------7-----5---7--5---7--5---/------------------------|
 A|------------------------------------------------------------------------|
 E|------------------------------------------------------------------------|

b [G5/A] [D/A] b [D5/A] b [A] . [G5/A] [D/A] [D5/A] Well, I...
 
 e|-------17-------------------------------------------------------------------|
 b|---17--------17--17--17------------17--------12----------------5\-----------|
 g|16-18-----16-18--14--14----14\--16-18----14--12--\7--5--7--5---5\-----------|
 D|------------------------16-----------------------------------7--------------|
 A|----------------------------------------------------------------------------|
 E|----------------------------------------------------------------------------|

Put it right on you Put it right on you
[Dsus4/A] [D/A] [A5] [E] [Dsus4/A] [D/A] [A5] [E]  
 
 e|-3----2-------------------------3---2---------------------------------------|
 b|-3----3-------------------------3---3---------------------------------------|
 g|-2----2----------2--2----1------2---2----------2--2----1--------------------|
 D|-0----0----------2--2----2------0---0----------2--2----2--------------------|
 A|-0----0----------0--0----2------0---0----------0--0----2--------------------|
 E|-------------------------0-----------------------------0--------------------|

I`ll do it if you want me to.
[Dsus4/A] [D/A] [A5] [E]  
 
 e|-3----2---------------------|
 b|-3----3---------------------|
 g|-2----2----------2--2----1--|
 D|-0----0----------2--2----2--|
 A|-0----0----------0--0----2--|
 E|----------------------0--0--|

(spoken:) C`mon,put it C`mon,put it Yeah,
[G] [D/A] pm [G] pm [D/A] pm [G] [D/A] pm [G] pm [D/A] pm[D/A] [A] [E] [A] [E]
 
 e|-3--2-------3-----2-----2--3--2-----3-----2------2--------------------------|
 b|-3--3-------3-----3-----3--3--3-----3-----3------3---2--0-----2-------------|
 g|-0--2-------0-----2-----2--0--2-----0-----2------2---2--1-----2-----1---1---|
 D|-0--0----0--0--0--0--0--0--0--0--0--0--0--0---0--0---2--2-----2-----2---2---|
 A|-2--0----0--2--0--0--0--0--2--0--0--2--0--0---0--0---0--2-----0-----2---2---|
 E|-3----------3--------------3--------3-------------------0--0-----0--0---0---|

I put the finger on you Pattern 5 I put the Finger on
[A] [E] [A] [E] [A5] [G] [D]  
 
 e|-------------------------| e|--------------3---2---2---2-----2---2--|
 b|-2--0-----2-----0--0--0--| b|--------------3---3---3---3-----3---3--|
 g|-2--1-----2-----1--1--1--| g|2----2----2---0---2---2---2-----2---2--|
 D|-2--2-----2-----2--2--2--| D|2----2----2---0---0---0---0-----0---0--|
 A|-0--2-----0-----2--2--2--| A|0----0----0---2------------------------|
 E|----0--0-----0--0--0--0--| E|--------------3------------------------|

w/pattern 5 (4x)
you Yeah_ I put the finger on you.Put the finger I put the Finger on
[A5] [G] [D] [A]  
 
 e|-5----5--5--5--------------------------------------------------------|
 b|-5----5--5--5--7-7--5--7--5----------8----10----8---7--5----7--5-----|
 g|---------------7-7--5--7--5----------9-----9----9---7--5----7--5-----|
 D|-----------------------------7------------------------------------7--|
 A|---------------------------------------------------------------------|
 E|---------------------------------------------------------------------|

you. I put the finger on you.
[A5] [G] [D] [A5] [G] [D] 
[b] [b] [b]  
 
 e|-5--5--5------5--5-----5--5--8------8------5-----------------17--------17---|
 b|-5--5--5------5--5-----5--5--7------7------5------------17---------17-------|
 g|---------7-9-------7-9-------------------------------16-18------16-18-------|
 D|----------------------------------------------------------------------------|
 A|----------------------------------------------------------------------------|
 E|----------------------------------------------------------------------------|

I put the finger on you.
[b] [b] [b] [b] [A5]  
 
 e|---------------------------|-------|
 b|---17-----17-----17-----17-|-------|
 g|16-18--16-18--16-18--16-18-|-------|
 D|---------------------------|-------|
 A|---------------------------|-------|
 E|---------------------------|-------| So close,

b r b b [A5] [D] pm
 
 e|17--------------------------|---------------------|17-----------------------|
 b|------17----------17-----17-|---------------------|17----------17-----------|
 g|---16-18-16-14-16-18--16-18-|---------------------|----14--14--14---14\-----|
 D|----------------------------|---------------------|-------------------------|
 A|----------------------------|---------------------|-------------------------|
 E|----------------------------|---------------------|-------------------------|

[A5] [D] Gonna hit the spot.[A5] [D]
.
 
 e|----------------------------|---------------------|---------|---------|
 b|----------------------------|--8--7--5------------|---------|---------|
 g|----------------------------|--9--7--5------------|---------|---------|
 D|----------------------------|---------------------|---------|---------|
 A|----------------------------|---------------------|---------|---------|
 E|----------------------------|---------------------|---------|---------|

I put the finger on you! you!
[G] [D] [G] [D] [A5] [E] b b b r [A5].
 
 e|---------------------|---------------------|-------8---8-8-8-8--------------|
 b|---------------------|---------------------|-------8---8-8-8-8--------------|
 g|---------------------|---------------------|-7-9-7-9-7-9-9-9-9-7--2---------|
 D|---------------------|---------------------|----------------------2---------|
 A|---------------------|---------------------|----------------------0---------|
 E|---------------------|---------------------|--------------------------------|

b=bend
r=release Bend
~=Handvibrato
p.m.=palm mute

Important: The song above is NOT stored on the Chordie server. The original song is hosted at www.xguitar.com. Chordie works as a search engine and provides on-the-fly formatting. Chordie does not index songs against artists'/composers' will. To remove this song please click here.

Text color:
Chord color:
Chord grids: 
Font size:    
Page size: 

A A5 B D D5/A Dsus4/A E G G5/A
Rate #1 of 1 versions

Login - add to songbook

SHARE PAGE  



You need to log in to post comments