Guitar Tabs, Chords and Lyrics
Major upgrade!! After one year development the new version of Chordie is now online! Please give feedback.


A Dagger Through the Heart of St. Angeles  Alexisonfire

A DAGGER THROUGH THE HEART OF ST. ANGELES
As recorded by Alexisonfire
(From the 2002 Album ALEXISONFIRE)
Words and Music by Alexisonfire
Arranged by Alexisonfire
Transcribed by Cordarro Collins
Gtr I (Eb Ab Db Gb Bb Eb) - 'Untitled'
Gtr II (Eb Ab Db Gb Bb Eb) - 'Untitled'
Gtr III (Eb Ab Db Gb Bb Eb) - 'Untitled'
Gtr IV (Eb Ab Db Gb Bb Eb) - 'Untitled'
Gtr V (Eb Ab Db Gb Bb Eb) - 'Untitled'
Intro
Q=228
(G#sus2) N.C.
[3/4] Gtr I
E q q E q q q E E E E E E E E E E E E
 
 ||----------------|-------------|-------------|-------------|
 ||o---------------|-------------|-------------|-------------|
 ||---9--9---9---9-|--9---9---9--|-4p2p0-5p4p0-|-4p2p0-5p4p0-|
 ||---8--8---8---8-|--8---8---8--|-------------|-------------|
 ||o--7--7---7---7-|--7---7---7--|-------------|-------------|
 ||----------------|-------------|-------------|-------------|

|
| Gtr II
| E q q E q q q E E E E E E E E E E E E
 
 ||----------------|-------------|-------------|-------------|
 ||o-11-11--11--11-|-11--11--11--|-------8p7p5-|-------8p7p5-|
 ||---9--9---9---9-|--9---9---9--|-7p5p4-------|-7p5p4-------|
 ||---8--8---8---8-|--8---8---8--|-------------|-------------|
 ||o--7--7---7---7-|--7---7---7--|-------------|-------------|
 ||----------------|-------------|-------------|-------------|

1.,2.,3.
(E+sus2/C) N.C.
E q q E q q q E E E E E E E E E E E E 4x
 
 |-----------|----------|-------------|--------------||
 |-----------|----------|-------------|-------------o||
 |-5-5--5--5-|-5--5--5--|-4p2p0-5p4p0-|-4p2p0-5p4p0--||
 |-4-4--4--4-|-4--4--4--|-------------|--------------||
 |-3-3--3--3-|-3--3--3--|-------------|-------------o||
 |-----------|----------|-------------|--------------||

|
| E q q E q q q E E E E E E E E E E E E 4x
 
 |-----------|----------|-------------|--------------||
 |-7-7--7--7-|-7--7--7--|-------8p7p5-|-------8p7p5-o||
 |-5-5--5--5-|-5--5--5--|-7p5p4-------|-7p5p4--------||
 |-4-4--4--4-|-4--4--4--|-------------|--------------||
 |-3-3--3--3-|-3--3--3--|-------------|-------------o||
 |-----------|----------|-------------|--------------||

4.
[(E+sus2/C)]E q q E q q q
 
 |-----------|----------|
 |-----------|----------|
 |-5-5--5--5-|-5--5--5--|
 |-4-4--4--4-|-4--4--4--|
 |-3-3--3--3-|-3--3--3--|
 |-----------|----------|

|
| E q q E q q q
 
 |-----------|----------|
 |-7-7--7--7-|-7--7--7--|
 |-5-5--5--5-|-5--5--5--|
 |-4-4--4--4-|-4--4--4--|
 |-3-3--3--3-|-3--3--3--|
 |-----------|----------|

Bridge
N.C.
H. +H. H. +H.
 
 |----------|----------|---------|--------|
 |----------|----------|---------|--------|
 |----------|----------|---------|--------|
 |-/9-------|-(9)------|-5-------|-(5)----|
 |----------|----------|---------|--------|
 |----------|----------|---------|--------|

|
| H. +H. H. +H.
 
 |----------|----------|---------|--------|
 |----------|----------|---------|--------|
 |-/9-------|-(9)------|---------|--------|
 |----------|----------|-7-------|-(7)----|
 |----------|----------|---------|--------|
 |----------|----------|---------|--------|

H. +H. H. +H.
 
 |-----------|-----------|----------|---------------|
 |-----------|-----------|----------|---------------|
 |-----------|-----------|----------|---------------|
 |--10-------|-(10)------|----------|---------------|
 |-----------|-----------|--9-------|--(9)/---------|
 |-----------|-----------|----------|---------------|

|
| ~~~
| H. +H. H. +Q H
 
 |-----------|-----------|----------|---------------|
 |-----------|-----------|----------|--------<7>----|
 |-/12-------|-(12)------|-11-------|-(11)---11-----|
 |-----------|-----------|----------|---------------|
 |-----------|-----------|----------|---------------|
 |-----------|-----------|----------|---------------|

Pre-Verse
Q=187
[(F#sus2)] [(Fsus2+5)] [(Esus2)] [(Ebsus2)] 
[4/4] TP TP TP TP
W W W W
 
 |------------|--------------------|-------------------------|----------|
 |------------|--------------------|-------------------------|----------|
 |--7---------|---6----------------|---5---------------------|---4------|
 |--6---------|---5----------------|---4---------------------|---3------|
 |--5---------|---4----------------|---3---------------------|---2------|
 |------------|--------------------|-------------------------|----------|

|
| >
| ~~~
| W +H Q Q +E Q H +E +W
 
 |------------|--------------------|-------------------------|----------|
 |-<7>--------|-(<7>)---------<7>--|-(<7>)------<7>----(<7>)-|-(<7>)----|
 |------------|----------<5>-------|-------<5>---------------|----------|
 |------------|--------------------|-------------------------|----------|
 |------------|--------------------|-------------------------|----------|
 |------------|--------------------|-------------------------|----------|

[(F#sus2)]TP [(Fsus2+5)]TP [(Esus2)]TP [(G#sus2)] PM|
W W W Q Q E E Q
 
 |----------|----------|----------|--------------|
 |----------|----------|----------|--------------|
 |-7--------|-6--------|-5--------|-9--9------9--|
 |-6--------|-5--------|-4--------|-8--8--8-8-8--|
 |-5--------|-4--------|-3--------|-7--7--7-7-7--|
 |----------|----------|----------|--------------|

|
| TP TP TP PM|
| W W W Q Q E E Q
 
 |----------|----------|----------|--------------|
 |----------|----------|----------|--------------|
 |----------|----------|----------|--------------|
 |-5--------|-4--------|-3--------|-2--2------2--|
 |-4--------|-3--------|-2--------|-1--1--1-1-1--|
 |-3--------|-2--------|-1--------|-0--0--0-0-0--|

Verse
Q=205
[(Esus2+5)]PM| PM| PM| PM| PM| PM| PM| PM| PM| PM|[D5(Esus2+5)]
E E E E E E E E E E E E E E Q E E E E E E E E E E E E E E E E
 
 |-----------------|----------------|-----------------|-------------------|
 |-----------------|----------------|-----------------|-------------------|
 |-----8-----8-----|-8-----8-----8--|-----8-----8-----|-8-----8-----7h=8--|
 |-----7-----7-----|-7-----7-----7--|-----7-----7-----|-7-----7-----7-(7)-|
 |-6-6-6-6-6-6-6-6-|-6-6-6-6-6-6-6--|-6-6-6-6-6-6-6-6-|-6-6-6-6-6-6-6-(6)-|
 |-----------------|----------------|-----------------|-------------------|

|
| PM| PM| PM| PM| PM| PM| PM| PM|
| E E E E E E E E E E E E E E Q E E E E E E E E E E E E E E E E
 
 |-----------------|----------------|-----------------|-2h3p2---2h3p2-----|
 |-----------------|----------------|-----------------|-------3--------3--|
 |-----3-----3-----|-3-----3-----3--|-----3-----3-----|-------------------|
 |-----2-----2-----|-2-----2-----2--|-----2-----2-----|-------------------|
 |-----1-----1-----|-1-----1-----1--|-----1-----1-----|-------------------|
 |-0-0-0-0-0-0-0-0-|-0-0-0-0-0-0-0--|-0-0-0-0-0-0-0-0-|-------------------|

PM| PM| PM| PM| PM| PM| PM| PM|[(C#sus2)] [C5]
E E E E E E E E E E E E E E Q E E E E E E E E H.. E
 
 |-----------------|----------------|-----------------|-------------------|
 |-----------------|----------------|-----------------|-------------------|
 |-----8-----8-----|-8-----8-----8--|-----8-----8-----|-2---------------5-|
 |-----7-----7-----|-7-----7-----7--|-----7-----7-----|-1---------------5-|
 |-6-6-6-6-6-6-6-6-|-6-6-6-6-6-6-6--|-6-6-6-6-6-6-6-6-|-0---------------3-|
 |-----------------|----------------|-----------------|-------------------|

|
| PM| PM| PM| PM| PM|
| E E E E E E E E E E E E E E Q E E E E Q Q E E E E E E E E
 
 |-----------------|----------------|-----------------|-------------------|
 |-----------------|----------------|-----------------|-------------------|
 |-----3-----3-----|-3-----3-----3--|-3-3-3-3-3-------|-5---5-5-5-3-3-3-5-|
 |-----2-----2-----|-2-----2-----2--|-2-2-2-2-2-------|-4---4-4-4-2-2-2-5-|
 |-----1-----1-----|-1-----1-----1--|-1-1-1-1-1-------|-3---3-3-3-1-1-1-3-|
 |-0-0-0-0-0-0-0-0-|-0-0-0-0-0-0-0--|-0-0-0-0-0-------|-----------0-0-0---|

Chorus
+W +H.. [E5]E +W +H.. [C5]E
 
 ||---------------|--------------------|------------------|---------------------|
 ||o--------------|--------------------|------------------|---------------------|
 ||--(5)----------|-(5)--------------9-|-(9)--------------|-(9)--------------5--|
 ||--(5)----------|-(5)--------------9-|-(9)--------------|-(9)--------------5--|
 ||o-(3)----------|-(3)--------------7-|-(7)--------------|-(7)--------------3--|
 ||---------------|--------------------|------------------|---------------------|

|
| +Q H Q +Q H +E E +Q Q. Q. Q E Q Q E
 
 ||-------8----7--|-(7)---10----(10)---|------12----10----|-------10-12--10-----|
 ||o--------------|--------------------|------------------|-12------------------|
 ||--(5)----------|------------------9-|-(9)--------------|------------------5--|
 ||--(5)----------|------------------9-|-(9)--------------|------------------5--|
 ||o-(3)----------|------------------7-|-(7)--------------|------------------3--|
 ||---------------|--------------------|------------------|---------------------|

+W +H.. [(G#sus2)] E
 
 |--------------|---------------------|
 |--------------|---------------------|
 |-(5)----------|-(5)---------------9-|
 |-(5)----------|-(5)---------------8-|
 |-(3)----------|-(3)---------------7-|
 |--------------|---------------------|

|
| +Q H Q +Q H +E E
 
 |------8----7--|-(7)---10----(10)----|
 |--------------|------------------11-|
 |-(5)----------|-------------------9-|
 |-(5)----------|-------------------8-|
 |-(3)----------|-------------------7-|
 |--------------|---------------------|

E E q E q E E E q E E E [C5]E 3x
 
 |--------------------|----------------------||
 |--------------------|---------------------o||
 |----9--9---9--9---9-|----9--9---9--9--9-5--||
 |----8--8---8--8---8-|----8--8---8--8--8-5--||
 |----7--7---7--7---7-|----7--7---7--7--7-3-o||
 |--------------------|----------------------||

|
| E E q E q E E E q E E E E 3x
 
 |--------------------|----------------------||
 |---11-11--11-11--11-|---11-11--11-11-11---o||
 |----9--9---9--9---9-|----9--9---9--9--9-5--||
 |----8--8---8--8---8-|----8--8---8--8--8-5--||
 |----7--7---7--7---7-|----7--7---7--7--7-3-o||
 |--------------------|----------------------||

+Q [Gadd11/C] H. H.. [E5]E +W +H.. [C5]E
 
 |----------------|--------------------|------------------|--------------------|
 |-------0--------|--------------------|------------------|--------------------|
 |-(5)--(5)-------|-(5)--------------9-|-(9)--------------|-(9)--------------5-|
 |-(5)--(5)-------|--5---------------9-|-(9)--------------|-(9)--------------5-|
 |-(3)--(3)-------|-(3)--------------7-|-(7)--------------|-(7)--------------3-|
 |----------------|--------------------|------------------|--------------------|

|
| +Q H Q +Q H +E E +Q Q. Q. Q E Q Q E
 
 |-------8-----7--|-(7)---10----(10)---|------12----10----|-------10-12--10----|
 |----------------|--------------------|------------------|-12-----------------|
 |-(5)------------|------------------9-|-(9)--------------|------------------5-|
 |-(5)------------|------------------9-|-(9)--------------|------------------5-|
 |-(3)------------|------------------7-|-(7)--------------|------------------3-|
 |----------------|--------------------|------------------|--------------------|

+W +W
 
 |--------------|-------------|
 |--------------|-------------|
 |-(5)----------|-(5)---------|
 |-(5)----------|-(5)---------|
 |-(3)----------|-(3)---------|
 |--------------|-------------|

|
| +Q H Q +Q H.
 
 |------8----7--|-(7)--10-----|
 |--------------|-------------|
 |-(5)----------|-------------|
 |-(5)----------|-------------|
 |-(3)----------|-------------|
 |--------------|-------------|

(G#suN.C. (G#suN.C. (G#suN.C. C5
Gtrs I, II
PM PM PM
H h H h H h E q E q Q
 
 |-----------|-----------|-----------|-------------------|
 |-----------|-----------|-----------|-------------------|
 |-9---------|-9---------|-9---------|--5--5---5--5---5--|
 |-8---------|-8---------|-8---------|--5--5---5--5---5--|
 |-7----7----|-7----7----|-7----7----|--3--3---3--3---3--|
 |-----------|-----------|-----------|-------------------|

|
| PM PM PM
| H h H h H h E q E q Q
 
 |-----------|-----------|-----------|-------------------|
 |-----------|-----------|-----------|-------------------|
 |-9---------|-9---------|-9---------|-------------------|
 |-8---------|-8---------|-8---------|-10-10--10-10--10--|
 |-7----7----|-7----7----|-7----7----|-------------------|
 |-----------|-----------|-----------|-------------------|

Breakdown
N.C. Gadd11/C
PM PM PM PM|
E E E E E E E E E E E Q. Q
 
 ||---------------------|----------------|
 ||o--------------------|--------0----0--|
 ||---------------------|--------5----5--|
 ||---------------------|--------5----5--|
 ||o----3p2----5p=2---2h|==3-----3----3--|
 ||--0------0-------0---|----0-0---------|

|
| PM PM PM PM|
| E E E E E E E E E E E Q. Q
 
 ||---------------------|----------------|
 ||o--------------------|----------------|
 ||---------------------|--------5----5--|
 ||----10p9---12p10---9h|=10-----5----5--|
 ||o-0------0-------0---|----0-0-3----3--|
 ||---------------------|----------------|

N.C. Gadd11/C
PM PM PM PM|
E E E E E E E E E E E Q. Q
 
 |--------------------|------------------||
 |--------------------|--------0----0---o||
 |--------------------|--------5----5----||
 |--------------------|--------5----5----||
 |----3p2----5p=2---2h|==3-----3----3---o||
 |-0------0-------0---|----0-0-----------||

|
| PM PM PM PM|
| E E E E E E E E E E E Q. Q
 
 |--------------------|------------------||
 |--------------------|-----------------o||
 |--------------------|--------5----5----||
 |---10p9---12p10---9h|=10-----5----5----||
 |-0------0-------0---|----0-0-3----3---o||
 |--------------------|------------------||

N.C. Gadd11/C N.C. Gadd11/C
 
 PM--------------------| PM--------------------|

E E E E E E E E E E E Q. Q E E E E E E E E E E E Q. Q
 
 ||------------------|---------------|-----------------|-----------------||
 ||o-----------------|-------0----0--|-----------------|-------0----0---o||
 ||------------------|-------5----5--|-----------------|-------5----5----||
 ||------------------|-------5----5--|-----------------|-------5----5----||
 ||o---3p2---5p2---2h|=3-----3----3--|---3p2---5p2---2h|=3-----3----3---o||
 ||--0-----0-----0---|---0-0---------|-0-----0-----0---|---0-0-----------||

|
 
 | PM--------------------| PM--------------------|

| E E E E E E E E E E E Q. Q E E E E E E E E E E E Q. Q
 
 ||------------------|---------------|-----------------|-----------------||
 ||o-----------------|---------------|-----------------|----------------o||
 ||------------------|-------5----5--|-----------------|-------5----5----||
 ||------------------|-------5----5--|-----------------|-------5----5----||
 ||o---3p2---5p2---2h|=3-----3----3--|---3p2---5p2---2h|=3-----3----3---o||
 ||--0-----0-----0---|---0-0---------|-0-----0-----0---|---0-0-----------||

N.C. C5 N.C. C5
PM PM PM PM| PM PM PM PM|
E E E E E E E E E E E Q. Q E E E E E E E E E E E Q. Q
 
 |-----------------|-------------------|-----------------|-------------------|
 |-----------------|-------------------|-----------------|-------------------|
 |-----------------|---------12----12--|-----------------|---------12----12--|
 |-----------------|----------x-----x--|-----------------|----------x-----x--|
 |---3p2---5p2---2S|=13\-----10----10--|---3p2---5p2---2S|=13\-----10----10--|
 |-0-----0-----0---|-----0-0-----------|-0-----0-----0---|-----0-0-----------|

|
 
 | PM----------------------| PM----------------------|

| E E E E E E E E E E E Q. Q E E E E E E E E E E E Q. Q
 
 |-----------------|-------------------|-----------------|-------------------|
 |-----------------|-------------------|-----------------|-------------------|
 |-----------------|----------5-----5--|-----------------|----------5-----5--|
 |-----------------|----------5-----5--|-----------------|----------5-----5--|
 |---3p2---5p2---2h|==3-------3-----3--|---3p2---5p2---2h|==3-------3-----3--|
 |-0-----0-----0---|-----0-0-----------|-0-----0-----0---|-----0-0-----------|

Q=185
N.C. C5 N.C. C5
PM PM PM PM| PM PM PM PM|
E E E E E E E E E E E Q. Q E E E E E E E E E E E Q. Q
 
 |-----------------|-------------------|-----------------|-------------------|
 |-----------------|-------------------|-----------------|-------------------|
 |-----------------|---------12----12--|-----------------|---------12----12--|
 |-----------------|----------x-----x--|-----------------|----------x-----x--|
 |---3p2---5p2---2S|=13\-----10----10--|---3p2---5p2---2S|=13\-----10----10--|
 |-0-----0-----0---|-----0-0-----------|-0-----0-----0---|-----0-0-----------|

|
 
 | PM----------------------| PM----------------------|

| E E E E E E E E E E E Q. Q E E E E E E E E E E E Q. Q
 
 |-----------------|-------------------|-----------------|-------------------|
 |-----------------|-------------------|-----------------|-------------------|
 |-----------------|----------5-----5--|-----------------|----------5-----5--|
 |-----------------|----------5-----5--|-----------------|----------5-----5--|
 |---3p2---5p2---2h|==3-------3-----3--|---3p2---5p2---2h|==3-------3-----3--|
 |-0-----0-----0---|-----0-0-----------|-0-----0-----0---|-----0-0-----------|

Interlude
N.C.(G5) N.C.(F#) N.C.(G5)
[3/4] Gtrs I, II
+Q. Q E Q. Q E Q. Q E E Q Q.
 
 |---------------|--------------|--------------|--------------|
 |---------------|--------------|--------------|--------------|
 |-(12)---12--12-|-12----12--12-|-11----11--11-|-11s12--12\---|
 |--(x)----x---x-|--x-----x---x-|--x-----x---x-|--xs=x---x\---|
 |-(10)---10--10-|-10----10--10-|--9-----9---9-|--9s10--10\---|
 |---------------|--------------|--------------|--------------|

|
| Gtr III
| Q. Q E Q. Q E Q. Q E E Q Q.
 
 |---------------|--------------|--------------|--------------|
 |---------------|--------------|--------------|--------------|
 |--12----12--12-|-12----12--12-|-11----11--11-|-11s12--12\---|
 |---x-----x---x-|--x-----x---x-|--x-----x---x-|--xs=x---x\---|
 |--10----10--10-|-10----10--10-|--9-----9---9-|--9s10--10\---|
 |---------------|--------------|--------------|--------------|

N.C.(C5)
Q. Q E Q. Q E Q. Q E Q. Q.
 
 |------------|------------|------------|-------------|
 |------------|------------|------------|-------------|
 |-5-----5--5-|-5-----5--5-|-5-----5--5-|-5-----5/----|
 |-x-----x--x-|-x-----x--x-|-x-----x--x-|-x-----x/----|
 |-3-----3--3-|-3-----3--3-|-3-----3--3-|-3-----3/----|
 |------------|------------|------------|-------------|

|
| Q E Q E Q E Q E Q E Q E Q E Q E
 
 |------------|------------|------------|-------------|
 |------------|------------|------------|-------------|
 |-------4----|-------4----|-------4----|-------4-----|
 |-----5----5-|-----5----5-|-----5----5-|-----5-----5-|
 |-3----------|-3----------|-3----------|-3-----------|
 |------------|------------|------------|-------------|

N.C.(G5) N.C.(F#) N.C.(G5)
Q. Q E Q. Q E Q. Q E E Q Q.
 
 |--------------|--------------|--------------|--------------|
 |--------------|--------------|--------------|--------------|
 |-12----12--12-|-12----12--12-|-11----11--11-|-11s12--12\---|
 |--x-----x---x-|--x-----x---x-|--x-----x---x-|--xs=x---x\---|
 |-10----10--10-|-10----10--10-|--9-----9---9-|--9s10--10\---|
 |--------------|--------------|--------------|--------------|

|
| Q. Q E Q. Q E Q. Q E E Q Q.
 
 |--------------|--------------|--------------|--------------|
 |--------------|--------------|--------------|--------------|
 |-12----12--12-|-12----12--12-|-11----11--11-|-11s12--12\---|
 |--x-----x---x-|--x-----x---x-|--x-----x---x-|--xs=x---x\---|
 |-10----10--10-|-10----10--10-|--9-----9---9-|--9s10--10\---|
 |--------------|--------------|--------------|--------------|

[C5]  
[4/4] >
W +W +W +W
 
 |-------------|---------------|---------------|---------------|
 |-------------|---------------|---------------|---------------|
 |-5-----------|-(5)-----------|-(5)-----------|-(5)-----------|
 |-5-----------|-(x)-----------|-(x)-----------|-(x)-----------|
 |-3-----------|-(3)-----------|-(3)-----------|-(3)-----------|
 |-------------|---------------|---------------|---------------|

|
| Q Q Q Q Q Q Q Q Q Q Q Q Q Q Q Q
 
 |-------------|---------------|---------------|---------------|
 |-------------|---------------|---------------|---------------|
 |-------0-----|---------0-----|---------0-----|---------0-----|
 |----5-----5--|------5-----5--|------7-----7--|------5-----5--|
 |-3-----------|--2------------|-/5------------|--3------------|
 |-------------|---------------|---------------|---------------|

N.C.(C5) N.C.(G/B) N.C.(A5) N.C.(C5)
Gtr III
Q Q Q Q Q Q Q Q Q Q Q Q Q Q Q Q
 
 |-------------|-------------|--------------|-------------|
 |-------------|-------------|--------------|-------------|
 |-------0-----|-------0-----|--------0-----|-------0-----|
 |----5-----5--|----5-----5--|-----7-----7--|----5-----5--|
 |-3-----------|-2-----------|-/5-----------|-3-----------|
 |-------------|-------------|--------------|-------------|

Q=195
N.C.(C5) N.C.(G/B) N.C.(G/D) N.C.(G5/C)
Q Q Q Q Q Q Q Q Q Q Q Q Q Q Q Q
 
 |-------------|-------------|--------------|-------------|
 |-------3-----|-------3-----|--------------|-------3-----|
 |-------------|-------------|--------4-----|-------------|
 |----5-----5--|----5-----5--|-----5-----5--|----5-----5--|
 |-3-----------|-2-----------|-/5-----------|-3-----------|
 |-------------|-------------|--------------|-------------|

N.C.(G5/C) N.C.(G/B) N.C.(G/D) N.C.(G/C)
Q Q Q Q Q Q Q Q Q Q Q Q Q Q Q Q
 
 |-------------|-------------|--------------|-------------|
 |-------3-----|-------3-----|--------------|-------------|
 |-------------|-------------|--------4-----|-------4-----|
 |----5-----5--|----5-----5--|-----5-----5--|----5-----5--|
 |-3-----------|-2-----------|-/5-----------|-3-----------|
 |-------------|-------------|--------------|-------------|

N.C.(C5) N.C.(G/B) N.C.(A5) N.C.(C5)
Q Q Q Q Q Q Q Q Q Q Q Q Q Q Q Q 3x
 
 ||-----------------|---------------|-----------------|------------------||
 ||o----------------|---------------|-----------------|-----------------o||
 ||----------0------|--------0------|----------0------|---------0--------||
 ||-------5------5--|-----5------5--|------7-------7--|------5------5----||
 ||o--3-------------|-2-------------|-/5--------------|--3--------------o||
 ||-----------------|---------------|-----------------|------------------||

|
| Gtr IV
| Q Q Q Q Q Q Q Q Q Q Q Q Q Q Q Q 3x
 
 ||-----------------|---------------|-----------------|------------------||
 ||o---------8------|--------8------|-----------------|---------8-------o||
 ||------12-----12--|----12-----12--|-----14--12--14--|-----12-----12----||
 ||--10-------------|-9-------------|-12--------------|-10---------------||
 ||o----------------|---------------|-----------------|-----------------o||
 ||-----------------|---------------|-----------------|------------------||

N.C.(C5) N.C.(G/B) N.C.(A5) N.C.(C5)
Q Q Q Q Q Q Q Q Q Q Q Q Q Q Q Q
 
 |----------------|---------------|-----------------|----------------|
 |----------------|---------------|-----------------|----------------|
 |---------0------|--------0------|----------0------|---------0------|
 |------5------5--|-----5------5--|------7-------7--|------5------5--|
 |--3-------------|-2-------------|-/5--------------|--3-------------|
 |----------------|---------------|-----------------|----------------|

|
| Q Q Q Q Q Q Q Q Q Q Q Q Q Q Q Q
 
 |----------------|---------------|-----------------|----------------|
 |---------8------|--------8------|-----------------|---------0------|
 |-----12-----12--|----12-----12--|-----14--12--14--|-----12-----12--|
 |-10-------------|-9-------------|-12--------------|-10-------------|
 |----------------|---------------|-----------------|----------------|
 |----------------|---------------|-----------------|----------------|

N.C.(C5)
Q Q Q Q Q Q Q Q Q Q Q Q Q Q Q Q
 
 |----------------|----------------|----------------|----------------|
 |----------------|----------------|----------------|----------------|
 |---------0------|---------0------|---------0------|---------0------|
 |------5------5--|------5------5--|------5------5--|------5------5--|
 |--3-------------|--3-------------|--3-------------|--3-------------|
 |----------------|----------------|----------------|----------------|

|
| Q Q Q Q Q Q Q Q Q Q Q Q Q Q Q Q
 
 |----------------|----------------|----------------|----------------|
 |----------------|----------------|----------------|----------------|
 |-----12--0--12--|-----12--0--12--|-----12--0--12--|-----12--0--12--|
 |-10-------------|-10-------------|-10-------------|-10-------------|
 |----------------|----------------|----------------|----------------|
 |----------------|----------------|----------------|----------------|

Q Q Q Q Q Q Q Q Q Q Q Q Q Q Q Q
 
 |----------------|----------------|----------------|----------------|
 |----------------|----------------|----------------|----------------|
 |---------0------|---------0------|---------0------|---------0------|
 |------5------5--|------5------5--|------5------5--|------5------5--|
 |--3-------------|--3-------------|--3-------------|--3-------------|
 |----------------|----------------|----------------|----------------|

|
| Q Q Q Q Q Q Q Q Q Q Q Q Q Q Q Q
 
 |----------------|----------------|----------------|----------------|
 |----------------|----------------|----------------|---------0------|
 |-----12--0--12--|-----12--0--12--|-----12--0--12--|-----12-----12--|
 |-10-------------|-10-------------|-10-------------|-10-------------|
 |----------------|----------------|----------------|----------------|
 |----------------|----------------|----------------|----------------|

Q Q Q Q Q Q Q Q Q Q Q Q Q Q Q Q
 
 |-----------------|-----------------|-----------------|-----------------|
 |-----------------|-----------------|-----------------|-----------------|
 |----------0------|----------0------|----------0------|----------0------|
 |------5-------5--|------5-------5--|------5-------5--|------5-------5--|
 |--3--------------|--3--------------|--3--------------|--3--------------|
 |-----------------|-----------------|-----------------|-----------------|

|
| Q Q Q Q Q Q Q Q Q Q Q Q Q Q Q Q
 
 |---------10------|---------10------|---------10------|---------10------|
 |-----------------|-----------------|-----------------|-----------------|
 |-----12------12--|-----12------12--|-----12------12--|-----12------12--|
 |-10--------------|-10--------------|-10--------------|-10--------------|
 |-----------------|-----------------|-----------------|-----------------|
 |-----------------|-----------------|-----------------|-----------------|

Q Q Q Q Q Q Q Q Q Q Q Q Q Q Q Q
 
 |-----------------|-----------------|-----------------|----------------|
 |-----------------|-----------------|-----------------|----------------|
 |----------0------|----------0------|----------0------|---------0------|
 |------5-------5--|------5-------5--|------5-------5--|------5------5--|
 |--3--------------|--3--------------|--3--------------|--3-------------|
 |-----------------|-----------------|-----------------|----------------|

|
| Q Q Q Q Q Q Q Q Q Q Q Q Q Q Q Q
 
 |---------10------|---------10------|---------10------|----------------|
 |-----------------|-----------------|-----------------|----------------|
 |-----12------12--|-----12------12--|-----12------12--|-----12--0--12--|
 |-10--------------|-10--------------|-10--------------|-10-------------|
 |-----------------|-----------------|-----------------|----------------|
 |-----------------|-----------------|-----------------|----------------|

[C5] Q Q Q Q +Q Q Q Q +Q Q Q +Q +W +W
 
 |---------------|----------------|------------------|-------------|---------|
 |---------------|----------------|------------------|-------------|---------|
 |-^-0-----------|----------------|------------------|-------------|---------|
 |-^-5--5--4--5--|--(5)--5--4--5--|--(5)--5--4--(4)--|--(4)--------|--(4)----|
 |-^-3-----------|----------------|------------------|-------------|---------|
 |---------------|----------------|------------------|-------------|---------|

|
| W +W +W +W +W
 
 |---------------|----------------|------------------|-------------|---------|
 |---------------|----------------|------------------|-------------|---------|
 |-^12-----------|-(12)-----------|-(12)-------------|-(12)--------|-(12)----|
 |-^10-----------|-(10)-----------|-(10)-------------|-(10)--------|-(10)----|
 |---------------|----------------|------------------|-------------|---------|
 |---------------|----------------|------------------|-------------|---------|

Bridge
Q=205
[E5]Gtr I[G5]
 
 |-3-| |-3-| |-3-| |-3-| |-3-| |-3-| |-3-|

E E E E E E E E E E E E E E E E E E E E E Q
 
 |-------------------------|-----------------------|
 |-------------------------|-----------------------|
 |-4-4-4-5-5-5-7-7-7-5-5-5-|-4-4-4-5-5-5-7-7-7-5\--|
 |-------------------------|-----------------------|
 |-------------------------|-----------------------|
 |-------------------------|-----------------------|

|
| Gtr II
| Q Q Q Q Q Q Q Q
 
 |-------------------------|-----------------------|
 |-------------------------|-----------------------|
 |-------------------------|-----------------------|
 |-2-----2-----2-----2-----|-5-----5-----5-----5---|
 |-2-----2-----2-----2-----|-5-----5-----5-----5---|
 |-0-----0-----0-----0-----|-3-----3-----3-----3---|

[C5] [A5]  
 
 |--3--| |--3--| |--3--| |--3--| |--3--| |--3--| |--3--|

E E E E E E E E E E E E E E E E E E E E E Q
 
 |-------------------------------------|---------------------------------|
 |-------------------------------------|---------------------------------|
 |-12-12-12-11-11-11-12-12-12-14-14-14-|-12-12-12-11-11-11-12-12-12-11\--|
 |-------------------------------------|---------------------------------|
 |-------------------------------------|---------------------------------|
 |-------------------------------------|---------------------------------|

|
| Q Q Q Q Q Q Q Q
 
 |-------------------------------------|---------------------------------|
 |-------------------------------------|---------------------------------|
 |--5--------5--------5--------5-------|--2--------2--------2--------2---|
 |--5--------5--------5--------5-------|--2--------2--------2--------2---|
 |--3--------3--------3--------3-------|--0--------0--------0--------0---|
 |-------------------------------------|---------------------------------|

N.C.
 
 |-3-| |-3-| |-3-| |-3-| |-3--| |-3-| |-3-|

E E E E E E E E E E E E E E E E E E E E E Q
 
 |--------------------------|-------------------------|
 |--------------------------|-------------------------|
 |--3-3-3-5-5-5-4-4-4-5-5-5-|--7--7-7-5-5-5-4-4-4-4\--|
 |--------------------------|-------------------------|
 |--------------------------|-------------------------|
 |--------------------------|-------------------------|

|
| ~~~~~~~~~~~~~~~~~~~~~~~~~~~~~~
| W +W
 
 |--------------------------|-------------------------|
 |--------------------------|-------------------------|
 |--------------------------|-------------------------|
 |-/2-----------------------|-(2)---------------------|
 |--------------------------|-------------------------|
 |--------------------------|-------------------------|

|
| Gtr V
| Q Q Q Q Q Q Q Q
 
 |--------------------------|-------------------------|
 |--------------------------|-------------------------|
 |--------------------------|-------------------------|
 |--2-----2-----2-----2-----|--5------5-----5-----5---|
 |--2-----2-----2-----2-----|--5------5-----5-----5---|
 |--0-----0-----0-----0-----|--3------3-----3-----3---|
 |--3--| |--3--| |--3--| |--3--| |--3--| |--3--| |--3--|

E E E E E E E E E E E E E E E E E E E E E Q
 
 |-------------------------------------|---------------------------------|
 |-------------------------------------|---------------------------------|
 |-16-16-16-14-14-14-12-12-12-11-11-11-|-12-12-12-14-14-14-12-12-12-11\--|
 |-------------------------------------|---------------------------------|
 |-------------------------------------|---------------------------------|
 |-------------------------------------|---------------------------------|

|
| ~~~~~~~~~~~~~~~~~~~~~~~~~~~~~~~~~~~~~~~~
| W W
 
 |-------------------------------------|---------------------------------|
 |-------------------------------------|---------------------------------|
 |-------------------------------------|---------------------------------|
 |-/5----------------------------------|--4------------------------------|
 |-------------------------------------|---------------------------------|
 |-------------------------------------|---------------------------------|

|
| Q Q Q Q Q Q Q Q
 
 |-------------------------------------|---------------------------------|
 |-------------------------------------|---------------------------------|
 |--5--------5--------5--------5-------|--2--------2--------2--------2---|
 |--5--------5--------5--------5-------|--2--------2--------2--------2---|
 |--3--------3--------3--------3-------|--0--------0--------0--------0---|
 |-------------------------------------|---------------------------------|
 |--3--| |--3--| |--3--| |--3--| |--3---| |--3--| |--3--|

E E E E E E E E E E E E E E E E E E E E E Q
 
 |-------------------------------------|----------------------------------|
 |-------------------------------------|----------------------------------|
 |-16-16-16-14-14-14-12-12-12-11-11-11-|-12--12-12-14-14-14-12-12-12-11\--|
 |-------------------------------------|----------------------------------|
 |-------------------------------------|----------------------------------|
 |-------------------------------------|----------------------------------|

|
| ~~~~~~~~~~~~~~~~~~~~~~~~~~~~~~~~~~~~~~~~~
| W +W
 
 |-------------------------------------|----------------------------------|
 |-------------------------------------|----------------------------------|
 |-------------------------------------|----------------------------------|
 |-/2----------------------------------|-(2)------------------------------|
 |-------------------------------------|----------------------------------|
 |-------------------------------------|----------------------------------|

|
| Q Q Q Q Q Q Q Q
 
 |-------------------------------------|----------------------------------|
 |-------------------------------------|----------------------------------|
 |-------------------------------------|----------------------------------|
 |--2--------2--------2--------2-------|--5---------5--------5--------5---|
 |--2--------2--------2--------2-------|--5---------5--------5--------5---|
 |--0--------0--------0--------0-------|--3---------3--------3--------3---|
 |-3-| |-3-| |-3-| |-3-| |-3-| |-3-| |-3-|

E E E E E E E E E E E E E E E E E E E E E Q
 
 |--------------------------|-----------------------|
 |--------------------------|-----------------------|
 |--5-5-5-4-4-4-2-2-2-4-4-4-|-5-5-5-4-4-4-5-5-5-5\--|
 |--------------------------|-----------------------|
 |--------------------------|-----------------------|
 |--------------------------|-----------------------|

|
| ~~~~~~~~~~~~~~~~~~~~~~~~~~~~
| W W
 
 |--------------------------|-----------------------|
 |--------------------------|-----------------------|
 |--------------------------|-----------------------|
 |-/5-----------------------|-4---------------------|
 |--------------------------|-----------------------|
 |--------------------------|-----------------------|

|
| Q Q Q Q Q Q Q Q
 
 |--------------------------|-----------------------|
 |--------------------------|-----------------------|
 |--5-----5-----5-----5-----|-2-----2-----2-----2---|
 |--5-----5-----5-----5-----|-2-----2-----2-----2---|
 |--3-----3-----3-----3-----|-0-----0-----0-----0---|
 |--------------------------|-----------------------|
 |-3-| |-3-| |-3-| |-3-| |-3--| |-3-| |-3-| |-3-|

[E] [E] [E] [E] [E] [E] [E] [E] [E] [E] [E] [E] [E] [E] [E] [E] [E] [E] [E] [E] [E] [E] [E] [E]  
 
 |--------------------------|---------------------------|
 |--------------------------|---------------------------|
 |--7-7-7-4-4-4-5-5-5-4-4-4-|--2--2-2-4-4-4-5-5-5-0-0-0-|
 |--------------------------|---------------------------|
 |--------------------------|---------------------------|
 |--------------------------|---------------------------|

|
| ~~~~~~~~~~~~~~~~~~~~~~~~~~~~~~
| W +W
 
 |--------------------------|---------------------------|
 |--------------------------|---------------------------|
 |--------------------------|---------------------------|
 |-/2-----------------------|-(2)-----------------------|
 |--------------------------|---------------------------|
 |--------------------------|---------------------------|

|
| Q Q Q Q Q Q Q Q
 
 |--------------------------|---------------------------|
 |--------------------------|---------------------------|
 |--------------------------|---------------------------|
 |--2-----2-----2-----2-----|--5------5-----5-----5-----|
 |--2-----2-----2-----2-----|--5------5-----5-----5-----|
 |--0-----0-----0-----0-----|--3------3-----3-----3-----|

TP TP TP TP
Q. H E +Q Q. Q.
 
 |-----------------|--------------------|
 |-----------------|--------------------|
 |--7-----5------4-|-(4)----------------|
 |-----------------|------/5\----/9\----|
 |-----------------|--------------------|
 |-----------------|-------0------0-----|

|
| ~~~~~~~~~~~~~~~~~~~~~
| W W
 
 |-----------------|--------------------|
 |-----------------|--------------------|
 |-----------------|--------------------|
 |-/5--------------|--4-----------------|
 |-----------------|--------------------|
 |-----------------|--------------------|

|
| Q Q Q Q Q Q Q Q
 
 |-----------------|--------------------|
 |-----------------|--------------------|
 |--5---5---5--5---|--2----2---2-----2--|
 |--5---5---5--5---|--2----2---2-----2--|
 |--3---3---3--3---|--0----0---0-----0--|
 |-----------------|--------------------|

Out-Chorus
[E5] [G]  
[6/4] Q. Q E Q Q Q Q. Q E Q Q E E
 
 |--------------------|---------------------|
 |--------------------|-0----0--0-0--0--x-x-|
 |--------------------|-5----5--5-5--5--x-x-|
 |-2----2--2-2--2--2--|-5----5--5-5--5--x-x-|
 |-2----2--2-2--2--2--|-x----x--x-x--x--x-x-|
 |-0----0--0-0--0--0--|-3----3--3-3--3--x-x-|

|
| Q. Q E Q Q Q Q. Q E Q Q Q
 
 |--------------------|---------------------|
 |--------------0--0--|-0----0--0-0--0--0---|
 |--------------0--0--|-0----0--0-0--0--0---|
 |-2----2--2-2--2--2--|-5----5--5-5--5--5---|
 |-2----2--2-2--2--2--|-5----5--5-5--5--5---|
 |-0----0--0-0--0--0--|-3----3--3-3--3--3---|

[G5/C] Q. Q E Q Q [A5/D] Q [Gmaj9/B]Q. Q E Q Q Q
 
 |--------------------------|----------------------|
 |--------------------------|----------------------|
 |--------------------------|----------------------|
 |--9-----9---9--9---9---9--|-7----7--7-/9--9--9\--|
 |--x-----x---x--x---x---x--|-x----x--x-/x--x--x\--|
 |--7-----7---7--7---7---7--|-5----5--5-/7--7--7\--|

|
| Q. Q E Q Q Q Q. Q E Q Q Q
 
 |--------------------------|----------------------|
 |--------------------------|-0----0--0--0--0--0---|
 |--------------------------|-0----0--0--0--0--0---|
 |-12----12--12-12--12--14--|-7----7--7--9--9--9\--|
 |-10----10--10-10--10--12--|-7----7--7--7--7--7\--|
 |--8-----8---8--8---8--10--|-5----5--5--5--5--5\--|

[Em]Q. Q E Q Q Q [G]Q. Q E Q Q Q
 
 ||---------------------|--------------------|
 ||o--------------------|--------------------|
 ||---------------------|-5----5--5-5--5--5--|
 ||--2----2--2-2--2--2--|-5----5--5-5--5--5--|
 ||o-2----2--2-2--2--2--|-x----x--x-x--x--x--|
 ||--0----0--0-0--0--0--|-3----3--3-3--3--3--|

|
| Q. Q E Q Q Q Q. Q E Q Q Q
 
 ||---------------------|--------------------|
 ||o-0----0--0-0--0--0--|-0----0--0-0--0--0--|
 ||--0----0--0-0--0--0--|-0----0--0-0--0--0--|
 ||--2----2--2-2--2--2--|-5----5--5-5--5--5--|
 ||o-2----2--2-2--2--2--|-5----5--5-5--5--5--|
 ||--0----0--0-0--0--0--|-3----3--3-3--3--3--|

[G5/C] Q. Q E Q Q [A5/D] Q [Gmaj9/B]Q. Q E Q Q Q 3x
 
 |--------------------------|-----------------------||
 |--------------------------|----------------------o||
 |--------------------------|-----------------------||
 |--9-----9---9--9---9---9--|-7----7--7-/9--9--9\---||
 |--x-----x---x--x---x---x--|-x----x--x-/x--x--x\--o||
 |--7-----7---7--7---7---7--|-5----5--5-/7--7--7\---||

|
| Q. Q E Q Q Q Q. Q E Q Q Q 3x
 
 |--------------------------|-----------------------||
 |--------------------------|-0----0--0--0--0--0---o||
 |--------------------------|-0----0--0--0--0--0----||
 |-12----12--12-12--12--14--|-7----7--7--9--9--9\---||
 |-10----10--10-10--10--12--|-7----7--7--7--7--7\--o||
 |--8-----8---8--8---8--10--|-5----5--5--5--5--5\---||

[Gadd11/C] E q q E q q q E q q E q q q
 
 |---------------------------|---------------------------|
 |---------------------------|---------------------------|
 |---------------------------|---------------------------|
 |-10-10--10--10-10--10--10--|-10-10--10--10-10--10--10--|
 |-10-10--10--10-10--10--10--|-10-10--10--10-10--10--10--|
 |--8--8---8---8--8---8---8--|--8--8---8---8--8---8---8--|

|
| E q q E q q q E q q E q q q
 
 |---------------------------|---------------------------|
 |--0--0---0---0--0---0---0--|--0--0---0---0--0---0---0--|
 |--0--0---0---0--0---0---0--|--0--0---0---0--0---0---0--|
 |-10-10--10--10-10--10--10--|-10-10--10--10-10--10--10--|
 |-10-10--10--10-10--10--10--|-10-10--10--10-10--10--10--|
 |--8--8---8---8--8---8---8--|--8--8---8---8--8---8---8--|

E q q E q q q q W Q
 
 |---------------------------|--------------------------|
 |---------------------------|--------------------------|
 |---------------------------|--------------------------|
 |-10-10--10--10-10--10--10--|-10-----------------------|
 |-10-10--10--10-10--10--10--|-10-----------------------|
 |--8--8---8---8--8---8---8--|--8-----------------------|

|
| Gtr IV
| >
| E q q E q q q q E q. e q. e e
 
 |---------------------------|--------------------------|
 |--0--0---0---0--0---0---0--|--0-----0-------0-------0-|
 |--0--0---0---0--0---0---0--|--0-----0-------0-------0-|
 |-10-10--10--10-10--10--10--|-10----10------10------10-|
 |-10-10--10--10-10--10--10--|-10----10------10------10-|
 |--8--8---8---8--8---8---8--|--8-----8-------8-------8-|

W.
 
 |-----------------------------*|
 |-----------------------------*|
 |-----------------------------*|
 |-----------------------------*|
 |-----------------------------*|
 |-----------------------------*|

|
| >
| +q E q. e q. e e
 
 |-----------------------------*|
 |--(0)-----0-------0-------0--*|
 |--(0)-----0-------0-------0--*|
 |-(10)----10------10------10--*|
 |-(10)----10------10------10--*|
 |--(8)-----8-------8-------8--*|

Duration Legend
 
 ---------------
 W - whole; H - half; Q - quarter; E - 8th; S - 16th; T - 32nd; X - 64th; a - acciaccatura

+ - note tied to previous; . - note dotted; .. - note double dotted
Uncapitalized letters represent notes that are staccato (1/2 duration)
Irregular groupings are notated above the duration line
Duration letters will always appear directly above the note/fret number it represents the
duration for. Duration letters with no fret number below them represent rests. Multi-
bar rests are notated in the form Wxn, where n is the number of bars to rest for. Low
melody durations appear below the staff
Tablature Legend
 
 ----------------

h - hammer-on
p - pull-off
b - bend
pb - pre-bend
r - bend release (if no number after the r, then release immediately)
/\ - slide into or out of (from/to "nowhere")
s - legato slide
S - shift slide
<n> - natural harmonic
(n) - artificial harmonic
n(n) - tapped harmonic
~ - vibrato
tr - trill
T - tap
TP - trem. picking
PM - palm muting
\n/ - tremolo bar dip; n = amount to dip
\n - tremolo bar down
n/ - tremolo bar up
/n\ - tremolo bar inverted dip
= - hold bend; also acts as connecting device for hammers/pulls
<> - volume swell (louder/softer)
x - on rhythm slash represents muted slash
o - on rhythm slash represents single note slash
Misc Legend
 
 -----------

| - bar
|| - double bar
||o - repeat start
o|| - repeat end
*| - double bar (ending)
: - bar (freetime)
$ - Segno
& - Coda
Tempo markers - <E/E./Q/Q./H/H.> = BPM(8/16=s8/s16), where s8 = swing 8ths, s16 = swing 16ths
***************************************************************************************
* Generated using Power Tab Editor by Brad Larsen - http://powertab.guitarnetwork.org *
***************************************************************************************

Important: The song above is NOT stored on the Chordie server. The original song is hosted at www.xguitar.com. Chordie works as a search engine and provides on-the-fly formatting. Chordie does not index songs against artists'/composers' will. To remove this song please click here.

Text color:
Chord color:
Chord grids: 
Font size:    
Page size: 

A5 A5/D C5 E E5 Em G G5 G5/C
Rate #5 of 6 versions

Login - add to songbook

SHARE PAGE  




You need to log in to post comments