Guitar Tabs, Chords and Lyrics
Major upgrade!! After one year development the new version of Chordie is now online! Please give feedback.


'Hey, It's Your Funeral Mama'  Alexisonfire

"HEY, IT'S YOUR FUNERAL, MAMA"
As recorded by Alexisonfire
(From the 2004 Album WATCH OUT!)
Words by George Pettit/Dallas Green/Wade MacNeil(?)
Music by Alexisonfire
Transcribed by James Martyn
Gtr I (Eb Ab Db Gb Bb Eb) - 'Wade'
Gtr II (Eb Ab Db Gb Bb Eb) - 'Dallas'
Intro
Q=110
[C#5/E]  
[4/4] Gtr I
H Q. S S +E E S S S S S S S S S S S S
 
 |---------------||----------------------------------------------------|
 |---------------||o---------------------------------------------------|
 |-------------6-||--(6)-6-------------------------------------------6-|
 |-----------x-6-||--(6)-6--x---x---x---x---x---x---x---x---x---x--x-6-|
 |-----------x-4-||o-(4)-4--x---x---x---x---x---x---x---x---x---x--x-4-|
 |-----------x-0-||--(0)-0--x---x---x---x---x---x---x---x---x---x--x-0-|

|
| Gtr II
 
 | PM---------------------------------|

| H Q. S S +E E S S S S S S S S S S S S
 
 |---------------||----------------------------------------------------|
 |---------------||o---------------------------------------------------|
 |-------------6-||--(6)-6-------------------------------------------6-|
 |-----------x-6-||--(6)-6-----------------------------------------x-6-|
 |-----------x-4-||o-(4)-4-----------------------------------------x-4-|
 |-----------x---||--------<4>-<4>-<4>-<4>-<4>-<4>-<4>-<4>-<4>-<4>-x---|

+E E S S S S S S S S S S S S
 
 |---------------------------------------------------|
 |---------------------------------------------------|
 |-(6)-6---------------------------------------------|
 |-(6)-6--x---x---x---x---x---x---x---x---x---x--x-2-|
 |-(4)-4--x---x---x---x---x---x---x---x---x---x--x-0-|
 |-(0)-0--x---x---x---x---x---x---x---x---x---x--x-0-|

|
 
 | PM---------------------------------|

| +E E S S S S S S S S S S S S
 
 |---------------------------------------------------|
 |---------------------------------------------------|
 |-(6)-6---------------------------------------------|
 |-(6)-6-----------------------------------------x-7-|
 |-(4)-4-----------------------------------------x-7-|
 |-------<4>-<4>-<4>-<4>-<4>-<4>-<4>-<4>-<4>-<4>-x-5-|

1.
[A5/E]+E E S S S S S S S S S S S S
 
 |---------------------------------------------------|
 |---------------------------------------------------|
 |---------------------------------------------------|
 |-(2)-2--x---x---x---x---x---x---x---x---x---x--x-2-|
 |-(0)-0--x---x---x---x---x---x---x---x---x---x--x-0-|
 |-(0)-0--x---x---x---x---x---x---x---x---x---x--x-0-|

|
 
 | PM---------------------------------|

| +E E S S S S S S S S S S S S
 
 |---------------------------------------------------|
 |---------------------------------------------------|
 |---------------------------------------------------|
 |-(7)-7-<4>-<4>-<4>-<4>-<4>-<4>-<4>-<4>-<4>-<4>-x-7-|
 |-(7)-7-----------------------------------------x-7-|
 |-(5)-5-----------------------------------------x-5-|

+E E S S S S S S S S S S S S
 
 |----------------------------------------------------||
 |---------------------------------------------------o||
 |-------------------------------------------------6--||
 |-(2)-2--x---x---x---x---x---x---x---x---x---x--x-6--||
 |-(0)-0--x---x---x---x---x---x---x---x---x---x--x-4-o||
 |-(0)-0--x---x---x---x---x---x---x---x---x---x--x-0--||

|
 
 | PM---------------------------------|

| +E E S S S S S S S S S S S S
 
 |----------------------------------------------------||
 |---------------------------------------------------o||
 |-------------------------------------------------6--||
 |-(7)-7-<4>-<4>-<4>-<4>-<4>-<4>-<4>-<4>-<4>-<4>-x-6--||
 |-(7)-7-----------------------------------------x-4-o||
 |-(5)-5-----------------------------------------x----||

2.
[A5/E]E E S S S S S S S S S S S S
 
 |-------------------------------------------------|
 |-------------------------------------------------|
 |-------------------------------------------------|
 |-2-2--x---x---x---x---x---x---x---x---x---x--x-2-|
 |-0-0--x---x---x---x---x---x---x---x---x---x--x-0-|
 |-0-0--x---x---x---x---x---x---x---x---x---x--x-0-|

|
 
 | PM---------------------------------|

| E E S S S S S S S S S S S S
 
 |-------------------------------------------------|
 |-------------------------------------------------|
 |-----<4>-<4>-<4>-<4>-<4>-<4>-<4>-<4>-<4>-<4>-----|
 |-7-7-<4>-<4>-<4>-<4>-<4>-<4>-<4>-<4>-<4>-<4>-x-7-|
 |-7-7-----------------------------------------x-7-|
 |-5-5-----------------------------------------x-5-|

+E E S S S S S S S S S S S S
 
 |---------------------------------------------------|
 |---------------------------------------------------|
 |---------------------------------------------------|
 |-(2)-2--x---x---x---x---x---x---x---x---x---x--x---|
 |-(0)-0--x---x---x---x---x---x---x---x---x---x--x-2-|
 |-(0)-0--x---x---x---x---x---x---x---x---x---x--x---|

|
 
 | PM---------------------------------|

| +E E S S S S S S S S S S S S
 
 |---------------------------------------------------|
 |---------------------------------------------------|
 |-------<4>-<4>-<4>-<4>-<4>-<4>-<4>-<4>-<4>-<4>---6-|
 |-(7)-7-<4>-<4>-<4>-<4>-<4>-<4>-<4>-<4>-<4>-<4>-x-6-|
 |-(7)-7-----------------------------------------x-4-|
 |-(5)-5-----------------------------------------x---|

Chorus
N.C.
S S S S S S S S S S Q +S S
 
 ||------------------------------------|
 ||o-----------------------9-----(9)---|
 ||------------4s6-6h9p8p6-------------|
 ||--------4h6-------------------------|
 ||o--2s=4---------------------------2-|
 ||------------------------------------|

|
| +S S E S S S E S E S S S S
 
 ||------------------------------------|
 ||o-----------------------------------|
 ||--(6)-6-6---6-6-6-4---4-4-4-4--4----|
 ||--(6)-6-6---6-6-6-4---4-4-4-4--4--7-|
 ||o-(4)-4-4---4-4-4-2---2-2-2-2--2--7-|
 ||----------------------------------5-|

1. 2.
N.C.
S S S S S S S S S S E E. S S S S S S S S S S S E E. S
 
 |-----------------------7-----------||---------------------7-----------|
 |-------------------------9--------o||-----------------------9---------|
 |-----------4s6-6h9p8p6-------------||---------4s6-6h9p8p6----------6--|
 |-------4h6-------------------------||-----4h6----------------------6--|
 |--2s=4--------------------------2-o||-2s4--------------------------4--|
 |-----------------------------------||------------------------------0--|

|
| +S S E S S S E S E S S S S S S E S S S E S E S S S S
 
 |-----------------------------------||---------------------------------|
 |----------------------------------o||---------------------------------|
 |--------------------------------6--||------------------------------6--|
 |-(7)-7-7---7-7-7-7---7-7-7--7-7-6--||-7-7-7---7-7-7-7---7-7-7--7-x-6--|
 |-(7)-7-7---7-7-7-7---7-7-7--7-7-4-o||-7-7-7---7-7-7-7---7-7-7--7-x-4--|
 |-(5)-5-5---5-5-5-5---5-5-5--5-5----||-5-5-5---5-5-5-5---5-5-5--5-x----|

Verse
[C#5/E]+E E S S S S S S S S S S S S
 
 ||----------------------------------------------------|
 ||o---------------------------------------------------|
 ||--(6)-6-------------------------------------------6-|
 ||--(6)-6--x---x---x---x---x---x---x---x---x---x--x-6-|
 ||o-(4)-4--x---x---x---x---x---x---x---x---x---x--x-4-|
 ||--(0)-0--x---x---x---x---x---x---x---x---x---x--x-0-|

|
 
 | PM---------------------------------|

| +E E S S S S S S S S S S S S
 
 ||----------------------------------------------------|
 ||o---------------------------------------------------|
 ||--(6)-6-------------------------------------------6-|
 ||--(6)-6-----------------------------------------x-6-|
 ||o-(4)-4-----------------------------------------x-4-|
 ||--------<4>-<4>-<4>-<4>-<4>-<4>-<4>-<4>-<4>-<4>-x---|

+E E S S S S S S S S S S S S
 
 |-----------------------------------------------------|
 |-------------------------------------------------10--|
 |-(6)-6--------------------------------------------9--|
 |-(6)-6--x---x---x---x---x---x---x---x---x---x--x-----|
 |-(4)-4--x---x---x---x---x---x---x---x---x---x--x-----|
 |-(0)-0--x---x---x---x---x---x---x---x---x---x--x-----|

|
 
 | PM---------------------------------|

| +E E S S S S S S S S S S S S
 
 |-----------------------------------------------------|
 |-----------------------------------------------------|
 |-(6)-6-----------------------------------------------|
 |-(6)-6-----------------------------------------x--7--|
 |-(4)-4-----------------------------------------x--7--|
 |-------<4>-<4>-<4>-<4>-<4>-<4>-<4>-<4>-<4>-<4>-x--5--|

1.,2.,3.
N.C.
+S S E S S E S S E S S E S S E S S E S S E S S S S 4x
 
 |-------------------------------------|-------------------------------------||
 |-(10)-10-9-10-10-9-10-10-9-10-10-9---|-10--10-9-10-10-9-10-10-9-10-10-----o||
 |--(9)--9-9--9--9-9--9--9-9--9--9-9---|--9---9-9--9--9-9--9--9-9--9--9---6--||
 |-------------------------------------|--------------------------------x-6--||
 |-------------------------------------|--------------------------------x-4-o||
 |-------------------------------------|--------------------------------x-0--||

|
| +S S E S S E S S E S S S S +S S E S S E S S E S S S S 4x
 
 |-------------------------------------|-------------------------------------||
 |-------------------------------------|------------------------------------o||
 |-------------------------------------|----------------------------------6--||
 |--(7)--7-7--7--7-7--7--7-7--7--7-7-4-|-(4)--4-4--4--4-4--4--4-4--4--4-4-6--||
 |--(7)--7-7--7--7-7--7--7-7--7--7-7-4-|-(4)--4-4--4--4-4--4--4-4--4--4-4-4-o||
 |--(5)--5-5--5--5-5--5--5-5--5--5-5-2-|-(2)--2-2--2--2-2--2--2-2--2--2-2----||

Chorus
4.
N.C. N.C.
S S S S S S S S S S S S S S S S S S S S S S S S S S Q +S S
 
 |-------------------------------------------||------------------------------------|
 |-12-12-10-10-9-9-10-10-12-12-10-10-9-9-----||o-----------------------9-----(9)---|
 |--9--9--9--9-9-9--9--9--9--9--9--9-9-9-----||------------4s6-6h9p8p6-------------|
 |-------------------------------------------||--------4h6-------------------------|
 |-----------------------------------------2-||o--2s=4---------------------------2-|
 |-------------------------------------------||------------------------------------|

|
| S S E S S E S S E S S S S +S S E S S S E S E S S S S
 
 |-------------------------------------------||------------------------------------|
 |-------------------------------------------||o-----------------------------------|
 |-----------------------------------------6-||--(6)-6-6---6-6-6-4---4-4-4-4--4----|
 |--4--4--4----4-4--4-----4--4--4----4-4-4-6-||--(6)-6-6---6-6-6-4---4-4-4-4--4--7-|
 |--4--4--4----4-4--4-----4--4--4----4-4-4-4-||o-(4)-4-4---4-4-4-2---2-2-2-2--2--7-|
 |--2--2--2----2-2--2-----2--2--2----2-2-2---||----------------------------------5-|

1.,2.,3. 4.
N.C.
S S S S S S S S S S E E. S 4x S S S S S S S S S S E E. S
 
 |-----------------------7-----------||---------------------7-------------|
 |-------------------------9--------o||-----------------------9-----------|
 |-----------4s6-6h9p8p6-------------||---------4s6-6h9p8p6----------9----|
 |-------4h6-------------------------||-----4h6---------------------------|
 |--2s=4--------------------------2-o||-2s4--------------------------7----|
 |-----------------------------------||-----------------------------------|

|
| +S S E S S S E S E S S S S 4x S S E S S S E S E S S S S
 
 |-----------------------------------||-----------------------------------|
 |----------------------------------o||-----------------------------------|
 |--------------------------------6--||------------------------------6----|
 |-(7)-7-7---7-7-7-7---7-7-7--7-7-6--||-7-7-7---7-7-7-7---7-7-7--7-7-6----|
 |-(7)-7-7---7-7-7-7---7-7-7--7-7-4-o||-7-7-7---7-7-7-7---7-7-7--7-7-4----|
 |-(5)-5-5---5-5-5-5---5-5-5--5-5----||-5-5-5---5-5-5-5---5-5-5--5-5------|

Pre-Verse
[E]+S S S [C#]E S S [B]E S S [A]E S S [F#] S
 
 ||-------------------------------------|
 ||o------------------------------------|
 ||--(9)-9-x-6---6-x-4---4-x---------11-|
 ||--------------------------7---7-x----|
 ||o-(7)-7-x-4---4-x-2---2-x----------9-|
 ||--------------------------5---5-x----|

|
| +S S E S S E S S E S S S S
 
 ||-------------------------------------|
 ||o------------------------------------|
 ||--(6)-6-6---6-6-6---6-6-6---6-6-6--6-|
 ||--(6)-6-6---6-6-6---6-6-6---6-6-6--6-|
 ||o-(4)-4-4---4-4-4---4-4-4---4-4-4--4-|
 ||-------------------------------------|

+S S S [E]E S S [B] E S S [G#] E S S S
 
 |-----------------------------------------|
 |-----------------------------------------|
 |-(11)-11-x-9---9-x-16---16-x-13---13-x-9-|
 |-----------------------------------------|
 |--(9)--9-x-7---7-x-14---14-x-11---11-x-7-|
 |-----------------------------------------|

|
| +S S E S S E S S E S S S S
 
 |-----------------------------------------|
 |-----------------------------------------|
 |--(6)--6-6---6-6-6----6--6-6----6--6-6---|
 |--(6)--6-6---6-6-6----6--6-6----6--6-6-7-|
 |--(4)--4-4---4-4-4----4--4-4----4--4-4-7-|
 |---------------------------------------5-|

[E]+S S S [C#]E S S [B]E S S [A]E S S [F#] S
 
 |------------------------------------|
 |------------------------------------|
 |-(9)-9-x-6---6-x-4---4-x---------11-|
 |-------------------------7---7-x----|
 |-(7)-7-x-4---4-x-2---2-x----------9-|
 |-------------------------5---5-x----|

|
| +S S E S S E S S E S S S S
 
 |------------------------------------|
 |------------------------------------|
 |------------------------------------|
 |-(7)-7-7---7-7-7---7-7-7---7-7-7--4-|
 |-(7)-7-7---7-7-7---7-7-7---7-7-7--4-|
 |-(5)-5-5---5-5-5---5-5-5---5-5-5--2-|

1.
+S S S [E]E S S [B] E S S [G#] E S S S
 
 |-------------------------------------------||
 |------------------------------------------o||
 |-(11)-11-x-9---9-x-16---16-x-13---13-x-9---||
 |-------------------------------------------||
 |--(9)--9-x-7---7-x-14---14-x-11---11-x-7--o||
 |-------------------------------------------||

|
| +S S E S S E S S E S S S S
 
 |-------------------------------------------||
 |------------------------------------------o||
 |---------------------------------------6---||
 |--(4)--4-4---4-4-4----4--4-4----4--4-4-6---||
 |--(4)--4-4---4-4-4----4--4-4----4--4-4-4--o||
 |--(2)--2-2---2-2-2----2--2-2----2--2-2-----||

2.
[F#] S S S [E]E S S [B] E S S [G#] E S S [E]S
 
 |---------------------------------------|
 |---------------------------------------|
 |-11-11-x-9---9-x-16---16-x-13---13-x-9-|
 |---------------------------------------|
 |--9--9-x-7---7-x-14---14-x-11---11-x-7-|
 |---------------------------------------|

|
| S S E S S E S S E S S S S
 
 |---------------------------------------|
 |---------------------------------------|
 |-------------------------------------6-|
 |--4--4-4---4-4-4----4--4-4----4--4-4---|
 |--4--4-4---4-4-4----4--4-4----4--4-4-4-|
 |--2--2-2---2-2-2----2--2-2----2--2-2---|

+S S S [C#]E S S [B]E S S [A]E S S [F#] S +S S S [E]E S S [B] E S S [G#] E S S S
 
 |------------------------------|------------------------------------|
 |------------------------------|------------------------------------|
 |-(9)-9-x-6-6-x-4-4-x-------11-|-(11)-11-x-9-9-x-16-16-x-13-13-x-9--|
 |---------------------7-7-x----|------------------------------------|
 |-(7)-7-x-4-4-x-2-2-x--------9-|--(9)--9-x-7-7-x-14-14-x-11-11-x-7--|
 |---------------------5-5-x----|------------------------------------|

|
| +S S S E S S E S S E S S S +S S S E S S E S S E S S S
 
 |------------------------------|------------------------------------|
 |------------------------------|------------------------------------|
 |-(6)-6-x-6-6-x-6-6-x-6-6-x--6-|--(6)--6-x-6-6-x--6--6-x--6--6-x----|
 |------------------------------|---------------------------------7--|
 |-(4)-4-x-4-4-x-4-4-x-4-4-x--4-|--(4)--4-x-4-4-x--4--4-x--4--4-x-7--|
 |------------------------------|---------------------------------5--|

[E]+S S S [C#]E S S [B]E S S [A]E S S [F#] S
 
 |------------------------------------|
 |------------------------------------|
 |-(9)-9-x-6---6-x-4---4-x---------11-|
 |-------------------------7---7-x----|
 |-(7)-7-x-4---4-x-2---2-x----------9-|
 |-------------------------5---5-x----|

|
| +S S E S S E S S E S S S S
 
 |------------------------------------|
 |------------------------------------|
 |------------------------------------|
 |-(7)-7-7---7-7-7---7-7-7---7-7-7--4-|
 |-(7)-7-7---7-7-7---7-7-7---7-7-7--4-|
 |-(5)-5-5---5-5-5---5-5-5---5-5-5--2-|

+S S S [E]E S S [B] E S S [G#] E S S S
 
 |------------------------------------------|
 |------------------------------------------|
 |-(11)-11-x-9---9-x-16---16-x-13---13-x-9--|
 |------------------------------------------|
 |--(9)--9-x-7---7-x-14---14-x-11---11-x-7--|
 |------------------------------------------|

|
| +S S E S S E S S E S S S S
 
 |------------------------------------------|
 |------------------------------------------|
 |---------------------------------------6--|
 |--(4)--4-4---4-4-4----4--4-4----4--4-4-6--|
 |--(4)--4-4---4-4-4----4--4-4----4--4-4-4--|
 |--(2)--2-2---2-2-2----2--2-2----2--2-2----|

Verse
[E]+S S S [C#]E S S [B]E S S [A]E S S [F#] S
 
 |------------------------------------|
 |------------------------------------|
 |-(9)-9-x-6---6-x-4---4-x---------11-|
 |-------------------------7---7-x----|
 |-(7)-7-x-4---4-x-2---2-x----------9-|
 |-------------------------5---5-x----|

|
| +S S E S S E S S E S S S S
 
 |------------------------------------|
 |------------------------------------|
 |-(6)-6-6---6-6-6---6-6-6---6-6-6--6-|
 |-(6)-6-6---6-6-6---6-6-6---6-6-6--6-|
 |-(4)-4-4---4-4-4---4-4-4---4-4-4--4-|
 |------------------------------------|

+S S S [E]E S S [B] E S S [G#] E S S S
 
 |------------------------------------------|
 |------------------------------------------|
 |-(11)-11-x-9---9-x-16---16-x-13---13-x-9--|
 |------------------------------------------|
 |--(9)--9-x-7---7-x-14---14-x-11---11-x-7--|
 |------------------------------------------|

|
| +S S E S S E S S E S S S S
 
 |------------------------------------------|
 |------------------------------------------|
 |--(6)--6-6---6-6-6----6--6-6----6--6-6----|
 |--(6)--6-6---6-6-6----6--6-6----6--6-6-7--|
 |--(4)--4-4---4-4-4----4--4-4----4--4-4-7--|
 |---------------------------------------5--|

[E]+S S S [C#]E S S [B]E S S [A]E S S [F#] S
 
 |------------------------------------|
 |------------------------------------|
 |-(9)-9-x-6---6-x-4---4-x---------11-|
 |-------------------------7---7-x----|
 |-(7)-7-x-4---4-x-2---2-x----------9-|
 |-------------------------5---5-x----|

|
| +S S E S S E S S E S S S S
 
 |------------------------------------|
 |------------------------------------|
 |------------------------------------|
 |-(7)-7-7---7-7-7---7-7-7---7-7-7--4-|
 |-(7)-7-7---7-7-7---7-7-7---7-7-7--4-|
 |-(5)-5-5---5-5-5---5-5-5---5-5-5--2-|

+S S S [E]E S S [B] E S S [G#] E S S S
 
 |------------------------------------------|
 |------------------------------------------|
 |-(11)-11-x-9---9-x-16---16-x-13---13-x----|
 |------------------------------------------|
 |--(9)--9-x-7---7-x-14---14-x-11---11-x-2--|
 |------------------------------------------|

|
| +S S E S S E S S E S S S S
 
 |------------------------------------------|
 |------------------------------------------|
 |---------------------------------------6--|
 |--(4)--4-4---4-4-4----4--4-4----4--4-4-6--|
 |--(4)--4-4---4-4-4----4--4-4----4--4-4-4--|
 |--(2)--2-2---2-2-2----2--2-2----2--2-2----|

Chorus
N.C.
S S S S S S S S S S Q +S S
 
 ||------------------------------------|
 ||o-----------------------9-----(9)---|
 ||------------4s6-6h9p8p6-------------|
 ||--------4h6-------------------------|
 ||o--2s=4---------------------------2-|
 ||------------------------------------|

|
| +S S E S S S E S E S S S S
 
 ||------------------------------------|
 ||o-----------------------------------|
 ||--(6)-6-6---6-6-6-4---4-4-4-4--4----|
 ||--(6)-6-6---6-6-6-4---4-4-4-4--4--7-|
 ||o-(4)-4-4---4-4-4-2---2-2-2-2--2--7-|
 ||----------------------------------5-|

1.,2.,3. 4.
N.C.
S S S S S S S S S S E E. S 4x S S S S S S S S S S E E. S
 
 |-----------------------7-----------||---------------------7------------|
 |-------------------------9--------o||-----------------------9----------|
 |-----------4s6-6h9p8p6-------------||---------4s6-6h9p8p6----------16--|
 |-------4h6-------------------------||-----4h6--------------------------|
 |--2s=4--------------------------2-o||-2s4--------------------------14--|
 |-----------------------------------||----------------------------------|

|
| +S S E S S S E S E S S S S 4x S S E S S S E S E S S S S
 
 |-----------------------------------||----------------------------------|
 |----------------------------------o||----------------------------------|
 |--------------------------------6--||-------------------------------6--|
 |-(7)-7-7---7-7-7-7---7-7-7--7-7-6--||-7-7-7---7-7-7-7---7-7-7--7-7--6--|
 |-(7)-7-7---7-7-7-7---7-7-7--7-7-4-o||-7-7-7---7-7-7-7---7-7-7--7-7--4--|
 |-(5)-5-5---5-5-5-5---5-5-5--5-5----||-5-5-5---5-5-5-5---5-5-5--5-5-----|

Post-Chorus(?)
[B] +S S S [G#] E S S [F#] E S S [G#] E S S [E]S
 
 ||------------------------------------------|
 ||o-----------------------------------------|
 ||--(16)-16-x-13---13-x-11-11-x-13---13-x-9-|
 ||------------------------------------------|
 ||o-(14)-14-x-11---11-x--9--9-x-11---11-x-7-|
 ||------------------------------------------|

|
| +S S E S S S E S E S S S S
 
 ||------------------------------------------|
 ||o-----------------------------------------|
 ||---(6)--6-6----6--6-6--4--4-4----4--4-4---|
 ||---(6)--6-6----6--6-6--4--4-4----4--4-4-7-|
 ||o--(4)--4-4----4--4-4--2--2-2----2--2-2-7-|
 ||----------------------------------------5-|

+S [Eb]S S [G#] E S [C#]E. S E E S S 3x
 
 |-----------------------------------||
 |----------------------------------o||
 |-(9)-8-x-13---x-6----6-6-6---6-16--||
 |-----------------------------------||
 |-(7)-6-x-11---x-4----4-4-4---4-14-o||
 |-----------------------------------||

|
| +S S E S S S E S E S S S S 3x
 
 |-----------------------------------||
 |----------------------------------o||
 |--------------------------------6--||
 |-(7)-7-7----7-7-7--7-7-7-7-7-7--6--||
 |-(7)-7-7----7-7-7--7-7-7-7-7-7--4-o||
 |-(5)-5-5----5-5-5--5-5-5-5-5-5-----||

+S S S E S S E S S E S S S +S S S E S E. S E Q
 
 |-----------------------------------------|-------------------------------|
 |-----------------------------------------|-------------------------------|
 |-(16)-16-x-13---13-x-11-11-x-13---13-x-9-|-(9)-8-x-13---x-6----6-6-6-----|
 |-----------------------------------------|-------------------------------|
 |-(14)-14-x-11---11-x--9--9-x-11---11-x-7-|-(7)-6-x-11---x-4----4-4-4-----|
 |-----------------------------------------|-------------------------------|

|
| +S S E S S S E S E S S S S +S S E S S S E S E S S E
 
 |-----------------------------------------|-------------------------------|
 |-----------------------------------------|-------------------------------|
 |--(6)--6-6----6--6-6--4--4-4----4--4-4---|-------------------------------|
 |--(6)--6-6----6--6-6--4--4-4----4--4-4-7-|-(7)-7-7----7-7-7--7-7-7-7-7-7-|
 |--(4)--4-4----4--4-4--2--2-2----2--2-2-7-|-(7)-7-7----7-7-7--7-7-7-7-7-7-|
 |---------------------------------------5-|-(5)-5-5----5-5-5--5-5-5-5-5-5-|

WEIRD Breakdown
Q=80
E C# B E Eb B F# A G# N.C.
E S S S S E. E. E E E S S S S Q E E S S
 
 ||------------------------|-------------------------------------------||
 ||o-----------------------|------------------------------------------o||
 ||----x-6-x-4-4--9--8-----|-11----x-14-x-13-13------------------------||
 ||--7-------------------9-|-------------------------------------------||
 ||o---x-4-x-2-2--7--6-----|--9----x-12-x-11-11------7-----6----------o||
 ||--5-------------------7-|-------------------------------------7s=9--||

|
| E S S S S E. E. S S E S S S S S S E. S S S S S S S
 
 ||------------------------|-------------------------------------------||
 ||o-----------------------|---------------------10----10----10----10-o||
 ||------------------------|--9s11-x-14-x-16-16-----13----13----13-----||
 ||--4-x-7-x-6-6--6--7s9-9-|-------------------------------------------||
 ||o-----------------------|--7s=9-x-12-x-14-14-----------------------o||
 ||--2-x-5-x-4-4--4--5s7-7-|-------------------------------------------||

Bridge
Q=90
[C#5]W [F#5]W [A5] [C#5]W [F#5]W[A5]
 
 |----------|-----------------|----------|------------------|
 |----------|-----------------|----------|------------------|
 |----------|-----------------|----------|------------------|
 |----------|-----------------|----------|------------------|
 |----------|-----------------|----------|------------------|
 |----------|-----------------|----------|------------------|

|
| W H +S Q.. W H +S Q..
 
 |----------|-----------------|----------|------------------|
 |----------|-----------------|----------|------------------|
 |-6--------|-----------------|-6--------|------------------|
 |-6--------|-4----(4)-/7-----|-6--------|-4----(4)-/7------|
 |-4--------|-4----(4)-/7-----|-4--------|-4----(4)-/7------|
 |----------|-2----(2)-/5-----|----------|-2----(2)-/5------|

N.C.
E. E. H +E E. E. E. Q..
 
 |-12--(12)-------------|-12--(12)----------------|
 |------16--12----(12)--|------16--12-------------|
 |----------------------|------------------13-----|
 |----------------------|-------------------------|
 |----------------------|-------------------------|
 |----------------------|-------------------------|

|
| W H +S Q..
 
 |----------------------|-------------------------|
 |----------------------|-------------------------|
 |--6-------------------|-------------------------|
 |--6-------------------|--4-----------(4)-/7-----|
 |--4-------------------|--4-----------(4)-/7-----|
 |----------------------|--2-----------(2)-/5-----|

E. E. Q. Q S S S E. E Q.. S
 
 |-12--(12)------------|------------------------------|
 |------16--12---------|----------12--12s14-----------|
 |----------------13---|-11h13p11---------------------|
 |---------------------|------------------------------|
 |---------------------|----------------------------2-|
 |---------------------|------------------------------|

|
| W H +S Q. S
 
 |---------------------|------------------------------|
 |---------------------|------------------------------|
 |--6------------------|----------------------------6-|
 |--6------------------|--4--------------(4)--/7----6-|
 |--4------------------|--4--------------(4)--/7----4-|
 |---------------------|--2--------------(2)--/5------|

"Chorus of the Decade"
Q=105
N.C.
S S S S S S S S S S Q +S S S S S S S S S S S S E E. S 3x
 
 ||------------------------------------|-----------------------7-----------||
 ||o-----------------------9-----(9)---|-------------------------9--------o||
 ||------------4s6-6h9p8p6-------------|-----------4s6-6h9p8p6-------------||
 ||--------4h6-------------------------|-------4h6-------------------------||
 ||o--2s=4---------------------------2-|--2s=4--------------------------2-o||
 ||------------------------------------|-----------------------------------||

|
| +S S E S S S E S E S S S S +S S E S S S E S E S S S S 3x
 
 ||------------------------------------|-----------------------------------||
 ||o-----------------------------------|----------------------------------o||
 ||--(6)-6-6---6-6-6-4---4-4-4-4--4----|--------------------------------6--||
 ||--(6)-6-6---6-6-6-4---4-4-4-4--4--7-|-(7)-7-7---7-7-7-7---7-7-7--7-7-6--||
 ||o-(4)-4-4---4-4-4-2---2-2-2-2--2--7-|-(7)-7-7---7-7-7-7---7-7-7--7-7-4-o||
 ||----------------------------------5-|-(5)-5-5---5-5-5-5---5-5-5--5-5----||

Q=70
N.C. A5 F#5
>
S S S S S S S S S S Q +E E. E. E. E. E S S W +W
 
 |-----------------------------------|-------------------|----------|--------*|
 |-----------------------9-----(9)---|-------------------|----------|--------*|
 |-----------4s6-6h9p8p6-------------|-------------------|----------|--------*|
 |-------4h6-------------------------|-7--7--7--7--7-7---|-4--------|-(4)----*|
 |--2s=4-----------------------------|-7--7--7--7--7-7-0-|-4--------|-(4)----*|
 |-----------------------------------|-5--5--5--5--5-5-0-|-2--------|-(2)----*|

|
| >
| +S S E S S S E S E S S S S E. E. E. E. E S S W +W
 
 |-----------------------------------|-------------------|----------|--------*|
 |-----------------------------------|-------------------|----------|--------*|
 |-(6)-6-6---6-6-6-4---4-4-4-4--4--4-|-------------------|----------|--------*|
 |-(6)-6-6---6-6-6-4---4-4-4-4--4--4-|-7--7--7--7--7-7---|-4--------|-(4)----*|
 |-(4)-4-4---4-4-4-2---2-2-2-2--2--2-|-7--7--7--7--7-7-0-|-4--------|-(4)----*|
 |-----------------------------------|-5--5--5--5--5-5-0-|-2--------|-(2)----*|

Duration Legend
 
 ---------------
 W - whole; H - half; Q - quarter; E - 8th; S - 16th; T - 32nd; X - 64th; a - acciaccatura

+ - note tied to previous; . - note dotted; .. - note double dotted
Uncapitalized letters represent notes that are staccato (1/2 duration)
Irregular groupings are notated above the duration line
Duration letters will always appear directly above the note/fret number it represents the
duration for. Duration letters with no fret number below them represent rests. Multi-
bar rests are notated in the form Wxn, where n is the number of bars to rest for. Low
melody durations appear below the staff
Tablature Legend
 
 ----------------

h - hammer-on
p - pull-off
b - bend
pb - pre-bend
r - bend release (if no number after the r, then release immediately)
/\ - slide into or out of (from/to "nowhere")
s - legato slide
S - shift slide
<n> - natural harmonic
(n) - artificial harmonic
n(n) - tapped harmonic
~ - vibrato
tr - trill
T - tap
TP - trem. picking
PM - palm muting
\n/ - tremolo bar dip; n = amount to dip
\n - tremolo bar down
n/ - tremolo bar up
/n\ - tremolo bar inverted dip
= - hold bend; also acts as connecting device for hammers/pulls
<> - volume swell (louder/softer)
x - on rhythm slash represents muted slash
o - on rhythm slash represents single note slash
Misc Legend
 
 -----------

| - bar
|| - double bar
||o - repeat start
o|| - repeat end
*| - double bar (ending)
: - bar (freetime)
$ - Segno
& - Coda
Tempo markers - <E/E./Q/Q./H/H.> = BPM(8/16=s8/s16), where s8 = swing 8ths, s16 = swing 16ths
***************************************************************************************
* Generated using Power Tab Editor by Brad Larsen - http://powertab.guitarnetwork.org *
***************************************************************************************

Important: The song above is NOT stored on the Chordie server. The original song is hosted at www.xguitar.com. Chordie works as a search engine and provides on-the-fly formatting. Chordie does not index songs against artists'/composers' will. To remove this song please click here.

Text color:
Chord color:
Chord grids: 
Font size:    
Page size: 

A A5 A5/E B C# C#5 C#5/E E Eb F# F#5 G#
Rate #1 of 1 versions

Login - add to songbook

SHARE PAGE  




You need to log in to post comments