Guitar Tabs, Chords and Lyrics
Major upgrade!! After one year development the new version of Chordie is now online! Please give feedback.


No Transitory  Alexisonfire

NO TRANSITORY
As recorded by Alexisonfire
(From the 2004 Album WATCH OUT!)
Words and Music by Alexisonfire
Arranged by Alexisonfire
Transcribed by Cordarro Collins
Gtr I (Eb Ab Db Gb Bb Eb) - 'Untitled'
Gtr II (Eb Ab Db Gb Bb Eb) - 'Untitled'
Gtr III (Eb Ab Db Gb Bb Eb) - 'Untitled'
Gtr IV (Eb Ab Db Gb Bb Eb) - 'Untitled'
Intro
Q=185
[C#5] [A5] 
[4/4] Gtr I
Q. Q. Q +E Q. Q E E Q. Q. E E +E Q. Q E E
 
 |-----------------|---------------------|-----------------|-----------------|
 |-----------------|---------------------|-----------------|-----------------|
 |-----------------|---------------------|-----------------|-----------------|
 |-/7-----7--------|---------------------|-/11----7--------|-----------------|
 |--------------7--|--(7)--7-----7---7-7-|-------------7h9-|-(9)-9----9--9-9-|
 |-----------------|---------------------|-----------------|-----------------|

|
| Gtr II
| Q. Q. Q +E Q. Q Q Q. Q. Q +E Q. Q Q
 
 |-----------------|---------------------|-----------------|-----------------|
 |-----------------|---------------------|-----------------|-----------------|
 |-----------------|---------------------|-----------------|-----------------|
 |-11----11----11--|-(11)-11----11--11---|---7----7----7---|-(7)-7----7--7---|
 |-11----11----11--|-(11)-11----11--11---|---7----7----7---|-(7)-7----7--7---|
 |--9-----9-----9--|--(9)--9-----9---9---|---5----5----5---|-(5)-5----5--5---|

|
| Gtr IV
| >
| W +W W W
 
 |--9--------------|--(9)----------------|-----------------|-----------------|
 |-----------------|---------------------|-----------------|-----------------|
 |-----------------|---------------------|-----------------|-----------------|
 |-----------------|---------------------|-----------------|-----------------|
 |-----------------|---------------------|-----------------|-----------------|
 |-----------------|---------------------|-----------------|-----------------|

Q=195
[F#5]  
[E] [E] [E] [E] [E] [E] [E] [E] [E] [E] [E] [E] [E] [E] [E] [E] [E] [E] [E] [E] [E] [E] [E] [E] [E] [E] [E] [E] [E] [E] [E] [E]  
 
 |-----------------|-----------------|-----------------|------------------|
 |-----------------|-----------------|-----------------|------------------|
 |-----------------|-----------------|-----------------|------------------|
 |-4-4-4-4-4-4-4-4-|-4-4-4-4-4-4-4-4-|-4-4-4-4-4-4-4-4-|-4-4-4-4-4-4-4-4--|
 |-4-4-4-4-4-4-4-4-|-4-4-4-4-4-4-4-4-|-4-4-4-4-4-4-4-4-|-4-4-4-4-4-4-4-4--|
 |-2-2-2-2-2-2-2-2-|-2-2-2-2-2-2-2-2-|-2-2-2-2-2-2-2-2-|-2-2-2-2-2-2-2-2--|

|
| E E E E E E E E E E E E E E E E E E E E E E E E E E E E E E E E
 
 |-----------------|-----------------|-----------------|------------------|
 |-----------------|-----------------|-----------------|------------------|
 |-----------------|-----------------|-----------------|------------------|
 |-4-4-4-4-4-4-4-4-|-4-4-4-4-4-4-4-4-|-4-4-4-4-4-4-4-4-|-4-4-4-4-4-4-4-4--|
 |-4-4-4-4-4-4-4-4-|-4-4-4-4-4-4-4-4-|-4-4-4-4-4-4-4-4-|-4-4-4-4-4-4-4-4--|
 |-2-2-2-2-2-2-2-2-|-2-2-2-2-2-2-2-2-|-2-2-2-2-2-2-2-2-|-2-2-2-2-2-2-2-2--|

Q=185
[C#5]Gtr I[A5]
Q. Q. Q +E Q. Q E E Q. Q. E E +E Q. Q E E
 
 ||------------------|---------------------|-----------------|-----------------|
 ||o-----------------|---------------------|-----------------|-----------------|
 ||------------------|---------------------|-----------------|-----------------|
 ||--/7-----7--------|---------------------|-/11----7--------|-----------------|
 ||o--------------7--|--(7)--7-----7---7-7-|-------------7h9-|-(9)-9----9--9-9-|
 ||------------------|---------------------|-----------------|-----------------|

|
| Gtr II
| Q. Q. Q +E Q. Q Q Q. Q. Q +E Q. Q Q
 
 ||------------------|---------------------|-----------------|-----------------|
 ||o-----------------|---------------------|-----------------|-----------------|
 ||------------------|---------------------|-----------------|-----------------|
 ||--11----11----11--|-(11)-11----11--11---|---7----7----7---|-(7)-7----7--7---|
 ||o-11----11----11--|-(11)-11----11--11---|---7----7----7---|-(7)-7----7--7---|
 ||---9-----9-----9--|--(9)--9-----9---9---|---5----5----5---|-(5)-5----5--5---|

Q=195
[F#5]  
[E] [E] [E] [E] [E] [E] [E] [E] [E] [E] [E] [E] [E] [E] [E] [E] [E] [E] [E] [E] [E] [E] [E] [E] [E] [E] [E] [E] [E] [E] [E] [E]  
 
 |-----------------|-----------------|-----------------|-------------------||
 |-----------------|-----------------|-----------------|------------------o||
 |-----------------|-----------------|-----------------|-------------------||
 |-4-4-4-4-4-4-4-4-|-4-4-4-4-4-4-4-4-|-4-4-4-4-4-4-4-4-|-4-4-4-4-4-4-4-4---||
 |-4-4-4-4-4-4-4-4-|-4-4-4-4-4-4-4-4-|-4-4-4-4-4-4-4-4-|-4-4-4-4-4-4-4-4--o||
 |-2-2-2-2-2-2-2-2-|-2-2-2-2-2-2-2-2-|-2-2-2-2-2-2-2-2-|-2-2-2-2-2-2-2-2---||

|
| E E E E E E E E E E E E E E E E E E E E E E E E E E E E E E E E
 
 |-----------------|-----------------|-----------------|-------------------||
 |-----------------|-----------------|-----------------|------------------o||
 |-----------------|-----------------|-----------------|-------------------||
 |-4-4-4-4-4-4-4-4-|-4-4-4-4-4-4-4-4-|-4-4-4-4-4-4-4-4-|-4-4-4-4-4-4-4-4---||
 |-4-4-4-4-4-4-4-4-|-4-4-4-4-4-4-4-4-|-4-4-4-4-4-4-4-4-|-4-4-4-4-4-4-4-4--o||
 |-2-2-2-2-2-2-2-2-|-2-2-2-2-2-2-2-2-|-2-2-2-2-2-2-2-2-|-2-2-2-2-2-2-2-2---||

Q=192
[C#5] Q. Q. Q +E Q. Q E E [A5] Q. Q. Q +W
 
 |-----------------|---------------------|----------------|--------|
 |-----------------|---------------------|----------------|--------|
 |-----------------|---------------------|----------------|--------|
 |-/7-----7--------|---------------------|-/11----7----6--|-(6)----|
 |--------------7--|--(7)--7-----7---7-7-|----------------|--------|
 |-----------------|---------------------|----------------|--------|

|
| Q. Q. Q +E Q. Q Q Q. Q. Q +W
 
 |-----------------|---------------------|----------------|--------|
 |-----------------|---------------------|----------------|--------|
 |-----------------|---------------------|----------------|--------|
 |-11----11----11--|-(11)-11----11--11---|---7----7----7--|-(7)----|
 |-11----11----11--|-(11)-11----11--11---|---7----7----7--|-(7)----|
 |--9-----9-----9--|--(9)--9-----9---9---|---5----5----5--|-(5)----|

Verse
+W +W +W
 
 |------------|------------|---------------------------------------------------------------------------------|
 |------------|------------|---------------------------------------------------------------------------------|
 |------------|------------|---------------------------------------------------------------------------------|
 |-(6)--------|-(6)--------|-(6)-----------------------------------------------------------------------------|
 |------------|------------|---------------------------------------------------------------------------------|
 |------------|------------|---------------------------------------------------------------------------------|

|
| +W +W +W
 
 |------------|------------|---------------------------------------------------------------------------------|
 |------------|------------|---------------------------------------------------------------------------------|
 |------------|------------|---------------------------------------------------------------------------------|
 |-(7)--------|-(7)--------|-(7)-----------------------------------------------------------------------------|
 |-(7)--------|-(7)--------|-(7)-----------------------------------------------------------------------------|
 |-(5)--------|-(5)--------|-(5)-----------------------------------------------------------------------------|

|
| Gtr III
| TP TP TP TP TP TP TP TP TP TP TP TP TP TP TP TP
| W W S S S S S S S S S S S S S S S S
 
 |------------|------------|---------------------------------------------------------------------------------|
 |------------|------------|---------------------------------------------------------------------------------|
 |------------|------------|---------------------------------------------------------------------------------|
 |------------|------------|-(x)\-(x)\-(x)\-(x)\-(x)\-(x)\-(x)\-(x)\-(x)\-(x)\-(x)\-(x)\-(x)\-(x)\-(x)\-(x)\-|
 |------------|------------|-(x)\-(x)\-(x)\-(x)\-(x)\-(x)\-(x)\-(x)\-(x)\-(x)\-(x)\-(x)\-(x)\-(x)\-(x)\-(x)\-|
 |------------|------------|---------------------------------------------------------------------------------|

+W
 
 |-----------------------------------------------------------------------------------|
 |-----------------------------------------------------------------------------------|
 |-----------------------------------------------------------------------------------|
 |-(6)-------------------------------------------------------------------------------|
 |-----------------------------------------------------------------------------------|
 |-----------------------------------------------------------------------------------|

|
| +W
 
 |-----------------------------------------------------------------------------------|
 |-----------------------------------------------------------------------------------|
 |-----------------------------------------------------------------------------------|
 |-(7)-------------------------------------------------------------------------------|
 |-(7)-------------------------------------------------------------------------------|
 |-(5)-------------------------------------------------------------------------------|

|
| TP TP TP TP TP TP TP TP TP TP TP TP TP TP TP TP
| S S S S S S S S S S S S S S S S
 
 |-----------------------------------------------------------------------------------|
 |-----------------------------------------------------------------------------------|
 |-----------------------------------------------------------------------------------|
 |-(x)\-(x)\-(x)\-(x)\-(x)\-(x)\-(x)\-(x)\-(x)\-(x)\-(x)\-(x)\-(x)\-(x)\-(x)\-(x)\---|
 |-(x)\-(x)\-(x)\-(x)\-(x)\-(x)\-(x)\-(x)\-(x)\-(x)\-(x)\-(x)\-(x)\-(x)\-(x)\-(x)\---|
 |-----------------------------------------------------------------------------------|

N.C.
Gtr IV
E Q E Q Q +Q H. +W +W
 
 |--------------|---------------|-------------|---------|
 |--------------|---------------|-------------|---------|
 |-----------9--|-(9)-----------|-------------|---------|
 |--------------|------11-------|-(11)--------|-(11)----|
 |-7-9--7-9-----|---------------|-------------|---------|
 |--------------|---------------|-------------|---------|

E Q E Q Q +Q H Q +W +W 5x
 
 |--------------|----------------|-------------||-----------||
 |--------------|----------------|-------------||o---------o||
 |-----------9--|-(9)--------11--|-(11)--------||--(11)-----||
 |--------------|------11--------|-------------||-----------||
 |-7-9--7-9-----|----------------|-------------||o---------o||
 |--------------|----------------|-------------||-----------||

E Q E Q Q +Q H. +W +W
 
 |--------------|---------------|-------------|---------|
 |--------------|---------------|-------------|---------|
 |-----------9--|-(9)-----------|-------------|---------|
 |--------------|------11-------|-(11)--------|-(11)----|
 |-7-9--7-9-----|---------------|-------------|---------|
 |--------------|---------------|-------------|---------|

>
E Q E Q Q +Q H Q +W +W
 
 |--------------|----------------|-------------|---------|
 |--------------|----------------|-------------|---------|
 |-----------9--|-(9)--------11--|-(11)--------|-(11)----|
 |--------------|------11--------|-------------|---------|
 |-7-9--7-9-----|----------------|-------------|---------|
 |--------------|----------------|-------------|---------|

+W +W Wx2
 
 |-------------|-------------|------------|
 |-------------|-------------|------------|
 |-(11)--------|-(11)--------|------------|
 |-------------|-------------|------------|
 |-------------|-------------|------------|
 |-------------|-------------|------------|

<
W +W +W +W
 
 |-9--------|-(9)--------|-(9)--------|-(9)----|
 |----------|------------|------------|--------|
 |----------|------------|------------|--------|
 |----------|------------|------------|--------|
 |----------|------------|------------|--------|
 |----------|------------|------------|--------|

Chorus
Q=196
[F#5]Gtr I
Q E Q E E E Q E Q E E E
 
 |--------------------|-----------------------|
 |-10p==7-10p==7-10p7-|-(10)--(7)-------------|
 |--------------------|--11p===9--11p==9-11p9-|
 |--------------------|-----------------------|
 |--------------------|-----------------------|
 |--------------------|-----------------------|

|
| Gtr II
| E E E E E E E E E E E E E E E E
 
 |--------------------|-----------------------|
 |--------------------|-----------------------|
 |--------------------|-----------------------|
 |--4-4-4--4-4-4--4-4-|---4-4--4---4-4-4--4-4-|
 |--4-4-4--4-4-4--4-4-|---4-4--4---4-4-4--4-4-|
 |--2-2-2--2-2-2--2-2-|---2-2--2---2-2-2--2-2-|

E Q E Q E E Q E Q E E E
 
 |--------------------|------------------------|
 |-7h10---7h10---7h10-|-(7)--(10)--------------|
 |--------------------|-11p====9--11p==9-11p9--|
 |--------------------|------------------------|
 |--------------------|------------------------|
 |--------------------|------------------------|

|
| E E E E E E E E E E E E E E E E
 
 |--------------------|------------------------|
 |--------------------|------------------------|
 |--------------------|------------------------|
 |-4--4-4-4--4-4-4--4-|--4-4---4---4-4-4--4-4--|
 |-4--4-4-4--4-4-4--4-|--4-4---4---4-4-4--4-4--|
 |-2--2-2-2--2-2-2--2-|--2-2---2---2-2-2--2-2--|

[B5]E Q E Q E E Q E Q E E E
 
 |--------------------|-----------------------|
 |-7h10---7h10---7h10-|-(7)--(10)-------------|
 |--------------------|-11p====9--11p==9-11p9-|
 |--------------------|-----------------------|
 |--------------------|-----------------------|
 |--------------------|-----------------------|

|
| E E E E E E E E E E E E E E E E
 
 |--------------------|-----------------------|
 |--------------------|-----------------------|
 |-4--4-4-4--4-4-4--4-|--4-4---4---4-4-4--4-4-|
 |-4--4-4-4--4-4-4--4-|--4-4---4---4-4-4--4-4-|
 |-2--2-2-2--2-2-2--2-|--2-2---2---2-2-2--2-2-|
 |--------------------|-----------------------|

[A5]E Q E Q E E Q E Q E E E
 
 |--------------------|------------------------|
 |-7h10---7h10---7h10-|-(7)--(10)--------------|
 |--------------------|-11p====9--11p==9-11p9--|
 |--------------------|------------------------|
 |--------------------|------------------------|
 |--------------------|------------------------|

|
| E E E E E E E E E E E E E E E E
 
 |--------------------|------------------------|
 |--------------------|------------------------|
 |-2--2-2-2--2-2-2--2-|--2-2---2---2-2-2--2-2--|
 |-2--2-2-2--2-2-2--2-|--2-2---2---2-2-2--2-2--|
 |-0--0-0-0--0-0-0--0-|--0-0---0---0-0-0--0-0--|
 |--------------------|------------------------|

[F#5] E E E E E E q E E E E Q Q
 
 |-12-10-0-12-10-0------|-------------------|
 |-----------------10---|-10-7-0-10-7---7---|
 |----------------------|-------------------|
 |----------------------|-------------------|
 |----------------------|-------------------|
 |----------------------|-------------------|

|
| E E E E E E E E E E E E E E E E
 
 |----------------------|-------------------|
 |----------------------|-------------------|
 |----------------------|-------------------|
 |--4--4-4--4--4-4--4-4-|--4-4-4--4-4-4-4-4-|
 |--4--4-4--4--4-4--4-4-|--4-4-4--4-4-4-4-4-|
 |--2--2-2--2--2-2--2-2-|--2-2-2--2-2-2-2-2-|

E E E E E E q E E E E Q Q
 
 |-12-10-0-12-10-0------|--------------------|
 |-----------------10---|-10-7-0-10-7---7----|
 |----------------------|--------------------|
 |----------------------|--------------------|
 |----------------------|--------------------|
 |----------------------|--------------------|

|
| E E E E E E E E E E E E E E E E
 
 |----------------------|--------------------|
 |----------------------|--------------------|
 |----------------------|--------------------|
 |--4--4-4--4--4-4--4-4-|--4-4-4--4-4-4-4-4--|
 |--4--4-4--4--4-4--4-4-|--4-4-4--4-4-4-4-4--|
 |--2--2-2--2--2-2--2-2-|--2-2-2--2-2-2-2-2--|

[B5] Q E Q E q Q E Q E E E
 
 |-------------------|-----------------------|
 |-10p==7-10p==7-7---|-(10)--(7)-------------|
 |-------------------|--11p===9--11p==9-11p9-|
 |-------------------|-----------------------|
 |-------------------|-----------------------|
 |-------------------|-----------------------|

|
| E E E E E E E E E E E E E E E E
 
 |-------------------|-----------------------|
 |-------------------|-----------------------|
 |--4-4-4--4-4-4-4-4-|---4-4--4---4-4-4--4-4-|
 |--4-4-4--4-4-4-4-4-|---4-4--4---4-4-4--4-4-|
 |--2-2-2--2-2-2-2-2-|---2-2--2---2-2-2--2-2-|
 |-------------------|-----------------------|

[A5]E Q E Q q Q E Q E E E
 
 |-------------------|------------------------|
 |-7h10---7h10---7---|-(7)--(10)--------------|
 |-------------------|-11p====9--11p==9-11p9--|
 |-------------------|------------------------|
 |-------------------|------------------------|
 |-------------------|------------------------|

|
| E E E E E E E E E E E E E E E E
 
 |-------------------|------------------------|
 |-------------------|------------------------|
 |-2--2-2-2--2-2-2-2-|--2-2---2---2-2-2--2-2--|
 |-2--2-2-2--2-2-2-2-|--2-2---2---2-2-2--2-2--|
 |-0--0-0-0--0-0-0-0-|--0-0---0---0-0-0--0-0--|
 |-------------------|------------------------|

[F#5] Q E Q E q Q E Q E E E
 
 |-------------------|-----------------------|
 |-10p==7-10p==7-7---|-(10)--(7)-------------|
 |-------------------|--11p===9--11p==9-11p9-|
 |-------------------|-----------------------|
 |-------------------|-----------------------|
 |-------------------|-----------------------|

|
| E E E E E E E E E E E E E E E E
 
 |-------------------|-----------------------|
 |-------------------|-----------------------|
 |-------------------|-----------------------|
 |--4-4-4--4-4-4-4-4-|---4-4--4---4-4-4--4-4-|
 |--4-4-4--4-4-4-4-4-|---4-4--4---4-4-4--4-4-|
 |--2-2-2--2-2-2-2-2-|---2-2--2---2-2-2--2-2-|

E Q E Q q Q E Q E E E
 
 |-------------------|------------------------|
 |-7h10---7h10---7---|-(7)--(10)--------------|
 |-------------------|-11p====9--11p==9-11p9--|
 |-------------------|------------------------|
 |-------------------|------------------------|
 |-------------------|------------------------|

|
| E E E E E E E E E E E E E E E E
 
 |-------------------|------------------------|
 |-------------------|------------------------|
 |-------------------|------------------------|
 |-4--4-4-4--4-4-4-4-|--4-4---4---4-4-4--4-4--|
 |-4--4-4-4--4-4-4-4-|--4-4---4---4-4-4--4-4--|
 |-2--2-2-2--2-2-2-2-|--2-2---2---2-2-2--2-2--|

[B5] E E E E E E q E E E E Q Q
 
 |-12-10-0-12-10-0------|-------------------|
 |-----------------10---|-10-7-0-10-7---7---|
 |----------------------|-------------------|
 |----------------------|-------------------|
 |----------------------|-------------------|
 |----------------------|-------------------|

|
| E E E E E E E E E E E E E E E E
 
 |----------------------|-------------------|
 |----------------------|-------------------|
 |--4--4-4--4--4-4--4-4-|--4-4-4--4-4-4-4-4-|
 |--4--4-4--4--4-4--4-4-|--4-4-4--4-4-4-4-4-|
 |--2--2-2--2--2-2--2-2-|--2-2-2--2-2-2-2-2-|
 |----------------------|-------------------|

[A5] E E E E E E q E E E E Q Q
 
 |-12-10-0-12-10-0------|--------------------|
 |-----------------10---|-10-7-0-10-7---7----|
 |----------------------|--------------------|
 |----------------------|--------------------|
 |----------------------|--------------------|
 |----------------------|--------------------|

|
| E E E E E E E E E E E E E E E E
 
 |----------------------|--------------------|
 |----------------------|--------------------|
 |--2--2-2--2--2-2--2-2-|--2-2-2--2-2-2-2-2--|
 |--2--2-2--2--2-2--2-2-|--2-2-2--2-2-2-2-2--|
 |--0--0-0--0--0-0--0-0-|--0-0-0--0-0-0-0-0--|
 |----------------------|--------------------|

[F#5] Q E Q E q Q E Q E E E
 
 |-------------------|-----------------------|
 |-10p==7-10p==7-7---|-(10)--(7)-------------|
 |-------------------|--11p===9--11p==9-11p9-|
 |-------------------|-----------------------|
 |-------------------|-----------------------|
 |-------------------|-----------------------|

|
| E E E E E E E E E E E E E E E E
 
 |-------------------|-----------------------|
 |-------------------|-----------------------|
 |-------------------|-----------------------|
 |--4-4-4--4-4-4-4-4-|---4-4--4---4-4-4--4-4-|
 |--4-4-4--4-4-4-4-4-|---4-4--4---4-4-4--4-4-|
 |--2-2-2--2-2-2-2-2-|---2-2--2---2-2-2--2-2-|

E Q E Q q Q E Q E E E
 
 |-------------------|------------------------|
 |-7h10---7h10---7---|-(7)--(10)--------------|
 |-------------------|-11p====9--11p==9-11p9--|
 |-------------------|------------------------|
 |-------------------|------------------------|
 |-------------------|------------------------|

|
| E E E E E E E E E E E E E E E E
 
 |-------------------|------------------------|
 |-------------------|------------------------|
 |-------------------|------------------------|
 |-4--4-4-4--4-4-4-4-|--4-4---4---4-4-4--4-4--|
 |-4--4-4-4--4-4-4-4-|--4-4---4---4-4-4--4-4--|
 |-2--2-2-2--2-2-2-2-|--2-2---2---2-2-2--2-2--|

[B5] Q E Q E q Q E Q E E E
 
 |-------------------|-----------------------|
 |-10p==7-10p==7-7---|-(10)--(7)-------------|
 |-------------------|--11p===9--11p==9-11p9-|
 |-------------------|-----------------------|
 |-------------------|-----------------------|
 |-------------------|-----------------------|

|
| E E E E E E E E E E E E E E E E
 
 |-------------------|-----------------------|
 |-------------------|-----------------------|
 |--4-4-4--4-4-4-4-4-|---4-4--4---4-4-4--4-4-|
 |--4-4-4--4-4-4-4-4-|---4-4--4---4-4-4--4-4-|
 |--2-2-2--2-2-2-2-2-|---2-2--2---2-2-2--2-2-|
 |-------------------|-----------------------|

[A5]E Q E Q q Q E Q E E E
 
 |-------------------|------------------------|
 |-7h10---7h10---7---|-(7)--(10)--------------|
 |-------------------|-11p====9--11p==9-11p9--|
 |-------------------|------------------------|
 |-------------------|------------------------|
 |-------------------|------------------------|

|
| E E E E E E E E E E E E E E E E
 
 |-------------------|------------------------|
 |-------------------|------------------------|
 |-2--2-2-2--2-2-2-2-|--2-2---2---2-2-2--2-2--|
 |-2--2-2-2--2-2-2-2-|--2-2---2---2-2-2--2-2--|
 |-0--0-0-0--0-0-0-0-|--0-0---0---0-0-0--0-0--|
 |-------------------|------------------------|

Bridge
N.C.
E Q E Q q Q E Q E E E
 
 ||-----------------|---------------------|
 ||o-7h10--7h10--7--|---------------------|
 ||-----------------|-11p===9--11p=9-11p9-|
 ||-----------------|---------------------|
 ||o----------------|---------------------|
 ||-----------------|---------------------|

|
| E Q E Q Q +Q H.
 
 ||-----------------|---------------------|
 ||o----------------|---------------------|
 ||--------------9--|-(9)-----------------|
 ||-----------------|------11-------------|
 ||o-7--9--7--9-----|---------------------|
 ||-----------------|---------------------|

E Q E Q q Q E Q E E E
 
 |----------------|----------------------||
 |-7h10--7h10--7--|---------------------o||
 |----------------|-11p===9--11p=9-11p9--||
 |----------------|----------------------||
 |----------------|---------------------o||
 |----------------|----------------------||

|
| E Q E Q Q +Q H.
 
 |----------------|----------------------||
 |----------------|---------------------o||
 |-------------9--|-(9)------------------||
 |----------------|------11--------------||
 |-7--9--7--9-----|---------------------o||
 |----------------|----------------------||

[F#5]Gtrs I, II
[E] [E] [E] [E] [E] [E] [E] [E] [E] [E] [E] [E] [E] [E] [E] [E] [E] [E] [E] [E] [E] [E] [E] [E] [E] [E] [E] [E] [E] [E] [E] [E]  
 
 |-----------------|-----------------|-----------------|------------------|
 |-----------------|-----------------|-----------------|------------------|
 |-----------------|-----------------|-----------------|------------------|
 |-4-4-4-4-4-4-4-4-|-4-4-4-4-4-4-4-4-|-4-4-4-4-4-4-4-4-|-4-4-4-4-4-4-4-4--|
 |-4-4-4-4-4-4-4-4-|-4-4-4-4-4-4-4-4-|-4-4-4-4-4-4-4-4-|-4-4-4-4-4-4-4-4--|
 |-2-2-2-2-2-2-2-2-|-2-2-2-2-2-2-2-2-|-2-2-2-2-2-2-2-2-|-2-2-2-2-2-2-2-2--|

[F#5]Q H. W
 
 |------------|------|
 |------------|------|
 |------------|------|
 |-4----------|------|
 |-4----------|------|
 |-2----------|------|

Chorus
[B5]Gtr I
Q E Q E q Q E Q E E E
 
 |-------------------|-----------------------|
 |-10p==7-10p==7-7---|-(10)--(7)-------------|
 |-------------------|--11p===9--11p==9-11p9-|
 |-------------------|-----------------------|
 |-------------------|-----------------------|
 |-------------------|-----------------------|

|
| Gtr II
| E E E E E E E E E E E E E E E E
 
 |-------------------|-----------------------|
 |-------------------|-----------------------|
 |--4-4-4--4-4-4-4-4-|---4-4--4---4-4-4--4-4-|
 |--4-4-4--4-4-4-4-4-|---4-4--4---4-4-4--4-4-|
 |--2-2-2--2-2-2-2-2-|---2-2--2---2-2-2--2-2-|
 |-------------------|-----------------------|

[A5]E Q E Q q Q E Q E E E
 
 |-------------------|------------------------|
 |-7h10---7h10---7---|-(7)--(10)--------------|
 |-------------------|-11p====9--11p==9-11p9--|
 |-------------------|------------------------|
 |-------------------|------------------------|
 |-------------------|------------------------|

|
| E E E E E E E E E E E E E E E E
 
 |-------------------|------------------------|
 |-------------------|------------------------|
 |-2--2-2-2--2-2-2-2-|--2-2---2---2-2-2--2-2--|
 |-2--2-2-2--2-2-2-2-|--2-2---2---2-2-2--2-2--|
 |-0--0-0-0--0-0-0-0-|--0-0---0---0-0-0--0-0--|
 |-------------------|------------------------|

[F#5] Q E Q E q Q E Q E E E
 
 |-------------------|-----------------------|
 |-10p==7-10p==7-7---|-(10)--(7)-------------|
 |-------------------|--11p===9--11p==9-11p9-|
 |-------------------|-----------------------|
 |-------------------|-----------------------|
 |-------------------|-----------------------|

|
| E E E E E E E E E E E E E E E E
 
 |-------------------|-----------------------|
 |-------------------|-----------------------|
 |-------------------|-----------------------|
 |--4-4-4--4-4-4-4-4-|---4-4--4---4-4-4--4-4-|
 |--4-4-4--4-4-4-4-4-|---4-4--4---4-4-4--4-4-|
 |--2-2-2--2-2-2-2-2-|---2-2--2---2-2-2--2-2-|

E Q E Q q Q E Q E E E
 
 |-------------------|------------------------|
 |-7h10---7h10---7---|-(7)--(10)--------------|
 |-------------------|-11p====9--11p==9-11p9--|
 |-------------------|------------------------|
 |-------------------|------------------------|
 |-------------------|------------------------|

|
| E E E E E E E E E E E E E E E E
 
 |-------------------|------------------------|
 |-------------------|------------------------|
 |-------------------|------------------------|
 |-4--4-4-4--4-4-4-4-|--4-4---4---4-4-4--4-4--|
 |-4--4-4-4--4-4-4-4-|--4-4---4---4-4-4--4-4--|
 |-2--2-2-2--2-2-2-2-|--2-2---2---2-2-2--2-2--|

[B5] E E E E E E q E E E E Q Q
 
 |-12-10-0-12-10-0------|-------------------|
 |-----------------10---|-10-7-0-10-7---7---|
 |----------------------|-------------------|
 |----------------------|-------------------|
 |----------------------|-------------------|
 |----------------------|-------------------|

|
| E E E E E E E E E E E E E E E E
 
 |----------------------|-------------------|
 |----------------------|-------------------|
 |--4--4-4--4--4-4--4-4-|--4-4-4--4-4-4-4-4-|
 |--4--4-4--4--4-4--4-4-|--4-4-4--4-4-4-4-4-|
 |--2--2-2--2--2-2--2-2-|--2-2-2--2-2-2-2-2-|
 |----------------------|-------------------|

[A5] E E E E E E q E E E E Q Q
 
 |-12-10-0-12-10-0------|--------------------|
 |-----------------10---|-10-7-0-10-7---7----|
 |----------------------|--------------------|
 |----------------------|--------------------|
 |----------------------|--------------------|
 |----------------------|--------------------|

|
| E E E E E E E E E E E E E E E E
 
 |----------------------|--------------------|
 |----------------------|--------------------|
 |--2--2-2--2--2-2--2-2-|--2-2-2--2-2-2-2-2--|
 |--2--2-2--2--2-2--2-2-|--2-2-2--2-2-2-2-2--|
 |--0--0-0--0--0-0--0-0-|--0-0-0--0-0-0-0-0--|
 |----------------------|--------------------|

Verse
Q=185
[F#5]Gtr I
>
W +W
 
 |---------------------------------|----------------------------------|
 |-7-------------------------------|-(7)------------------------------|
 |---------------------------------|----------------------------------|
 |---------------------------------|----------------------------------|
 |---------------------------------|----------------------------------|
 |---------------------------------|----------------------------------|

|
| Gtr II
| >
| W +W
 
 |---------------------------------|----------------------------------|
 |---------------------------------|----------------------------------|
 |---------------------------------|----------------------------------|
 |-4-------------------------------|-(4)------------------------------|
 |-4-------------------------------|-(4)------------------------------|
 |-2-------------------------------|-(2)------------------------------|

|
| Gtr III
| TP TP TP TP TP TP TP TP TP TP TP TP TP TP TP TP
| E E E E E E E E E E E E E E E E
 
 |---------------------------------|----------------------------------|
 |---------------------------------|----------------------------------|
 |---------------------------------|----------------------------------|
 |-x\-x\-x\-x\-(x)\-(x)\-(x)\-(x)\-|--x\-x\-x\-x\-(x)\-(x)\-(x)\-(x)\-|
 |-x\-x\-x\-x\-(x)\-(x)\-(x)\-(x)\-|--x\-x\-x\-x\-(x)\-(x)\-(x)\-(x)\-|
 |---------------------------------|----------------------------------|

+W +W
 
 |----------------------------------|-----------------------------------|
 |-(7)------------------------------|-(7)-------------------------------|
 |----------------------------------|-----------------------------------|
 |----------------------------------|-----------------------------------|
 |----------------------------------|-----------------------------------|
 |----------------------------------|-----------------------------------|

|
| +W +W
 
 |----------------------------------|-----------------------------------|
 |----------------------------------|-----------------------------------|
 |----------------------------------|-----------------------------------|
 |-(4)------------------------------|-(4)-------------------------------|
 |-(4)------------------------------|-(4)-------------------------------|
 |-(2)------------------------------|-(2)-------------------------------|

|
| TP TP TP TP TP TP TP TP TP TP TP TP TP TP TP TP
| E E E E E E E E E E E E E E E E
 
 |----------------------------------|-----------------------------------|
 |----------------------------------|-----------------------------------|
 |----------------------------------|-----------------------------------|
 |--x\-x\-x\-x\-(x)\-(x)\-(x)\-(x)\-|--x\-x\-x\-x\-(x)\-(x)\-(x)\-(x)\--|
 |--x\-x\-x\-x\-(x)\-(x)\-(x)\-(x)\-|--x\-x\-x\-x\-(x)\-(x)\-(x)\-(x)\--|
 |----------------------------------|-----------------------------------|

N.C.
Gtr III
TP TP TP TP TP TP TP TP TP TP TP TP TP TP TP TP
[E] [E] [E] [E] [E] [E] [E] [E] [E] [E] [E] [E] [E] [E] [E] [E]  
 
 |---------------------------------|---------------------------------|
 |---------------------------------|---------------------------------|
 |---------------------------------|---------------------------------|
 |-x\-x\-x\-x\-(x)\-(x)\-(x)\-(x)\-|-x\-x\-x\-x\-(x)\-(x)\-(x)\-(x)\-|
 |-x\-x\-x\-x\-(x)\-(x)\-(x)\-(x)\-|-x\-x\-x\-x\-(x)\-(x)\-(x)\-(x)\-|
 |---------------------------------|---------------------------------|

TP TP TP TP TP TP TP TP TP TP TP TP TP TP TP TP
[E] [E] [E] [E] [E] [E] [E] [E] [E] [E] [E] [E] [E] [E] [E] [E]  
 
 |---------------------------------|--------------------------|
 |---------------------------------|--------------------------|
 |---------------------------------|--------------------------|
 |-x\-x\-x\-x\-(x)\-(x)\-(x)\-(x)\-|-x\-x\-x\-x\-x\-x\-x\-x\--|
 |-x\-x\-x\-x\-(x)\-(x)\-(x)\-(x)\-|-x\-x\-x\-x\-x\-x\-x\-x\--|
 |---------------------------------|--------------------------|

Gtr IV
E Q E Q Q +Q H. +W +W
 
 |--------------|---------------|-------------|---------|
 |--------------|---------------|-------------|---------|
 |-----------9--|-(9)-----------|-------------|---------|
 |--------------|------11-------|-(11)--------|-(11)----|
 |-7-9--7-9-----|---------------|-------------|---------|
 |--------------|---------------|-------------|---------|

E Q E Q Q +Q H Q +W +W
 
 |--------------|----------------|-------------|---------|
 |--------------|----------------|-------------|---------|
 |-----------9--|-(9)--------11--|-(11)--------|-(11)----|
 |--------------|------11--------|-------------|---------|
 |-7-9--7-9-----|----------------|-------------|---------|
 |--------------|----------------|-------------|---------|

E Q E Q Q +Q H. +W +W
 
 |--------------|---------------|-------------|---------|
 |--------------|---------------|-------------|---------|
 |-----------9--|-(9)-----------|-------------|---------|
 |--------------|------11-------|-(11)--------|-(11)----|
 |-7-9--7-9-----|---------------|-------------|---------|
 |--------------|---------------|-------------|---------|

E Q E Q Q +Q H Q +W
 
 |--------------|----------------|-------------|
 |--------------|----------------|-------------|
 |-----------9--|-(9)--------11--|-(11)--------|
 |--------------|------11--------|-------------|
 |-7-9--7-9-----|----------------|-------------|
 |--------------|----------------|-------------|

+W +W +W
 
 |-------------|-------------|---------|
 |-------------|-------------|---------|
 |-(11)--------|-(11)--------|-(11)----|
 |-------------|-------------|---------|
 |-------------|-------------|---------|
 |-------------|-------------|---------|

Out-Chorus
Q=196
[B5]Gtr I
E E E E E E q E E E E Q Q
 
 |-12-10-0-12-10-0------|-------------------|
 |-----------------10---|-10-7-0-10-7---7---|
 |----------------------|-------------------|
 |----------------------|-------------------|
 |----------------------|-------------------|
 |----------------------|-------------------|

|
| Gtr II
| E E E E E E E E E E E E E E E E
 
 |----------------------|-------------------|
 |----------------------|-------------------|
 |--4--4-4--4--4-4--4-4-|--4-4-4--4-4-4-4-4-|
 |--4--4-4--4--4-4--4-4-|--4-4-4--4-4-4-4-4-|
 |--2--2-2--2--2-2--2-2-|--2-2-2--2-2-2-2-2-|
 |----------------------|-------------------|

[A5] E E E E E E q E E E E Q Q
 
 |-12-10-0-12-10-0------|--------------------|
 |-----------------10---|-10-7-0-10-7---7----|
 |----------------------|--------------------|
 |----------------------|--------------------|
 |----------------------|--------------------|
 |----------------------|--------------------|

|
| E E E E E E E E E E E E E E E E
 
 |----------------------|--------------------|
 |----------------------|--------------------|
 |--2--2-2--2--2-2--2-2-|--2-2-2--2-2-2-2-2--|
 |--2--2-2--2--2-2--2-2-|--2-2-2--2-2-2-2-2--|
 |--0--0-0--0--0-0--0-0-|--0-0-0--0-0-0-0-0--|
 |----------------------|--------------------|

[F#5] Q E Q E q Q E Q E E E
 
 |-------------------|-----------------------|
 |-10p==7-10p==7-7---|-(10)--(7)-------------|
 |-------------------|--11p===9--11p==9-11p9-|
 |-------------------|-----------------------|
 |-------------------|-----------------------|
 |-------------------|-----------------------|

|
| E E E E E E E E E E E E E E E E
 
 |-------------------|-----------------------|
 |-------------------|-----------------------|
 |-------------------|-----------------------|
 |--4-4-4--4-4-4-4-4-|---4-4--4---4-4-4--4-4-|
 |--4-4-4--4-4-4-4-4-|---4-4--4---4-4-4--4-4-|
 |--2-2-2--2-2-2-2-2-|---2-2--2---2-2-2--2-2-|

E Q E Q q Q E Q E E E
 
 |-------------------|------------------------|
 |-7h10---7h10---7---|-(7)--(10)--------------|
 |-------------------|-11p====9--11p==9-11p9--|
 |-------------------|------------------------|
 |-------------------|------------------------|
 |-------------------|------------------------|

|
| E E E E E E E E E E E E E E E E
 
 |-------------------|------------------------|
 |-------------------|------------------------|
 |-------------------|------------------------|
 |-4--4-4-4--4-4-4-4-|--4-4---4---4-4-4--4-4--|
 |-4--4-4-4--4-4-4-4-|--4-4---4---4-4-4--4-4--|
 |-2--2-2-2--2-2-2-2-|--2-2---2---2-2-2--2-2--|

[B5] E E E E E E q E E E E Q Q
 
 |-12-10-0-12-10-0------|-------------------|
 |-----------------10---|-10-7-0-10-7---7---|
 |----------------------|-------------------|
 |----------------------|-------------------|
 |----------------------|-------------------|
 |----------------------|-------------------|

|
| E E E E E E E E E E E E E E E E
 
 |----------------------|-------------------|
 |----------------------|-------------------|
 |--4--4-4--4--4-4--4-4-|--4-4-4--4-4-4-4-4-|
 |--4--4-4--4--4-4--4-4-|--4-4-4--4-4-4-4-4-|
 |--2--2-2--2--2-2--2-2-|--2-2-2--2-2-2-2-2-|
 |----------------------|-------------------|

[A5] E E E E E E q E E E E Q Q
 
 |-12-10-0-12-10-0------|--------------------|
 |-----------------10---|-10-7-0-10-7---7----|
 |----------------------|--------------------|
 |----------------------|--------------------|
 |----------------------|--------------------|
 |----------------------|--------------------|

|
| E E E E E E E E E E E E E E E E
 
 |----------------------|--------------------|
 |----------------------|--------------------|
 |--2--2-2--2--2-2--2-2-|--2-2-2--2-2-2-2-2--|
 |--2--2-2--2--2-2--2-2-|--2-2-2--2-2-2-2-2--|
 |--0--0-0--0--0-0--0-0-|--0-0-0--0-0-0-0-0--|
 |----------------------|--------------------|

[F#5]Gtrs I, II
[E] [E] [E] [E] [E] [E] [E] [E] [E] [E] [E] [E] [E] [E] [E] [E] [E] [E] [E] [E] [E] [E] [E] [E] [E] [E] [E] [E] [E] [E] [E] [E]  
 
 |-----------------|-----------------|-----------------|------------------|
 |-----------------|-----------------|-----------------|------------------|
 |-----------------|-----------------|-----------------|------------------|
 |-4-4-4-4-4-4-4-4-|-4-4-4-4-4-4-4-4-|-4-4-4-4-4-4-4-4-|-4-4-4-4-4-4-4-4--|
 |-4-4-4-4-4-4-4-4-|-4-4-4-4-4-4-4-4-|-4-4-4-4-4-4-4-4-|-4-4-4-4-4-4-4-4--|
 |-2-2-2-2-2-2-2-2-|-2-2-2-2-2-2-2-2-|-2-2-2-2-2-2-2-2-|-2-2-2-2-2-2-2-2--|

|
| Gtr IV
| E E E E E E E E E E E E E E E E E E E E E E E E E E E E E E E E
 
 |-----------------|-----------------|-----------------|------------------|
 |-7-7-7-7-7-7-7-7-|-7-7-7-7-7-7-7-7-|-7-7-7-7-7-7-7-7-|-7-7-7-7-7-7-7-7--|
 |-----------------|-----------------|-----------------|------------------|
 |-----------------|-----------------|-----------------|------------------|
 |-----------------|-----------------|-----------------|------------------|
 |-----------------|-----------------|-----------------|------------------|

E H.. W
 
 |-------------|------*|
 |-------------|------*|
 |-------------|------*|
 |-4-----------|------*|
 |-4-----------|------*|
 |-2-----------|------*|

|
| E H.. W
 
 |-------------|------*|
 |-7-----------|------*|
 |-------------|------*|
 |-------------|------*|
 |-------------|------*|
 |-------------|------*|

Duration Legend
 
 ---------------
 W - whole; H - half; Q - quarter; E - 8th; S - 16th; T - 32nd; X - 64th; a - acciaccatura

+ - note tied to previous; . - note dotted; .. - note double dotted
Uncapitalized letters represent notes that are staccato (1/2 duration)
Irregular groupings are notated above the duration line
Duration letters will always appear directly above the note/fret number it represents the
duration for. Duration letters with no fret number below them represent rests. Multi-
bar rests are notated in the form Wxn, where n is the number of bars to rest for. Low
melody durations appear below the staff
Tablature Legend
 
 ----------------

h - hammer-on
p - pull-off
b - bend
pb - pre-bend
r - bend release (if no number after the r, then release immediately)
/\ - slide into or out of (from/to "nowhere")
s - legato slide
S - shift slide
<n> - natural harmonic
(n) - artificial harmonic
n(n) - tapped harmonic
~ - vibrato
tr - trill
T - tap
TP - trem. picking
PM - palm muting
\n/ - tremolo bar dip; n = amount to dip
\n - tremolo bar down
n/ - tremolo bar up
/n\ - tremolo bar inverted dip
= - hold bend; also acts as connecting device for hammers/pulls
<> - volume swell (louder/softer)
x - on rhythm slash represents muted slash
o - on rhythm slash represents single note slash
Misc Legend
 
 -----------

| - bar
|| - double bar
||o - repeat start
o|| - repeat end
*| - double bar (ending)
: - bar (freetime)
$ - Segno
& - Coda
Tempo markers - <E/E./Q/Q./H/H.> = BPM(8/16=s8/s16), where s8 = swing 8ths, s16 = swing 16ths

Important: The song above is NOT stored on the Chordie server. The original song is hosted at www.xguitar.com. Chordie works as a search engine and provides on-the-fly formatting. Chordie does not index songs against artists'/composers' will. To remove this song please click here.

Text color:
Chord color:
Chord grids: 
Font size:    
Page size: 

A5 B5 C#5 E F#5
Rate #4 of 5 versions

Jango Player

Login - add to songbook

SHARE PAGE  



You need to log in to post comments