Guitar Tabs, Chords and Lyrics
Major upgrade!! After one year development the new version of Chordie is now online! Please give feedback.


Side Walk When She Walks  Alexisonfire

Gtr I (Db Ab Db Gb Bb Eb) - 'Distortion'
Gtr II (Db Ab Db Gb Bb Eb) - 'Distortion'
Gtr III (Db Ab Db Gb Bb Eb) - 'Clean'
Gtr IV (Db Ab Db Gb Bb Eb) - 'Clean'
Gtr V (Db Ab Db Gb Bb Eb) - 'Piano'
Gtr VI (Db Ab Db Gb Bb Eb) - 'Distortion'
Intro
Q=156
N.C. B5 G5
[4/4] Gtr III Gtr I
 
 |-10---(10)-------------|-------------|----------------|
 |----8---7-----5-7--5---|-------------|----------------|
 |-----------7---------7-|-------------|----------------|
 |-----------------------|-9-----9\\----|--5--------5----|
 |-----------------------|-9-----9\\----|--5--------5----|
 |-----------------------|-9-----9\\----|--5--------5----|

|
| Gtr IV Gtr II
 
 |-----------------------|-------------|----------------|
 |--7-----7----10---10---|-------------|----------------|
 |----7------7----7----7-|-4----11\\----|-14-14-14-14----|
 |-----------------------|-------------|-12-12-12-12----|
 |-----------------------|-------------|-12-12-12-12----|
 |-----------------------|-------------|----------------|

[B5] [G5]  
 
 |-------------------------|----------------|
 |-------------------------|----------------|
 |-------------------------|----------------|
 |--9--------9\\------------|--5--------5----|
 |--9--------9\\------------|--5--------5----|
 |--9--------9\\------------|--5--------5----|

|
 
 |-------------------------|----------------|
 |-------------------------|----------------|
 |-18-18-18-18---19---18---|-14-14-14-14----|
 |-16-16-16-16--(16)-(16)--|-12-12-12-12----|
 |-16-16-16-16--(16)-(16)--|-12-12-12-12----|
 |-------------------------|----------------|

[D/B]  
 
 ||-----------------|----------------|
 ||o----------------|----------------|
 ||--11-11-11-11----|-11-11-11-11----|
 ||--12-12-12-12----|-12-12-12-12----|
 ||o--9--9--9--9----|--9--9--9--9----|
 ||---9--9--9--9----|--9--9--9--9----|

|
 
 ||-----------------|----------------|
 ||o----------------|----------------|
 ||-----------------|----------------|
 ||---9--9--9--9----|--9--9--9--9----|
 ||o--9--9--9--9----|--9--9--9--9----|
 ||---9--9--9--9----|--9--9--9--9----|

[Dadd11/G] [B5]  
 
 |-5-5-5-5----|-5-5-5-5-----||------------------|
 |-7-7-7-7----|-7-7-7-7----o||------------------|
 |-7-7-7-7----|-7-7-7-7-----||------------------|
 |-5-5-5-5----|-5-5-5-5-----||--9---------------|
 |-5-5-5-5----|-5-5-5-5----o||--9---------------|
 |-5-5-5-5----|-5-5-5-5-----||--9---------------|

|
 
 |------------|-------------||-10---------------|
 |------------|------------o||----8-7---5-7-5---|
 |------------|-------------||--------7-------7-|
 |-5-5-5-5----|-5-5-5-5-----||------------------|
 |-5-5-5-5----|-5-5-5-5----o||------------------|
 |-5-5-5-5----|-5-5-5-5-----||------------------|

Pre-Verse
[B5] >
 
 |-------------|--------------------|-------------|---------|
 |-------------|--------------------|-------------|---------|
 |-11----------|-(11)---------------|-(11)--------|-(11)----|
 |--9----------|--(9)---------------|--(9)--------|--(9)----|
 |--9----------|--(9)---------------|--(9)--------|--(9)----|
 |--9----------|--(9)---------------|--(9)--------|--(9)----|

|
 
 |-------------|----------------5-5-|---5---------|--(5)----|
 |-------------|----------------7-7-|---7---------|--(7)----|
 |-------11----|-(11)----(11)\\--0-0-|---0---------|--(0)----|
 |--9----------|--------------------|-------------|---------|
 |-------------|--------------------|-------------|---------|
 |-------------|--------------------|-------------|---------|

N.C.
 
 |---------------|-------------|
 |------10-------|-------------|
 |-6-7-------7-6-|-(6)----7----|
 |---------------|-------------|
 |---------------|-------------|
 |---------------|-------------|

|
 
 |---------------|-------------|
 |------10-------|-------------|
 |-6-7-------7-6-|-(6)----7----|
 |---------------|-------------|
 |---------------|-------------|
 |---------------|-------------|

|
| Gtr VI
 
 |---------------|-------------|
 |---------------|-------------|
 |---------------|-------------|
 |---------------|-------------|
 |---------------|-------------|
 |---------------|-------------|

>
 
 |------------------------------|--------------------------|
 |-------10-(10)-(10)-(10)-(10)-|-(10)---------------------|
 |-6-7-6-----(6)--(7)--(6)--(6)-|--------------------------|
 |------------------------------|--------------------------|
 |------------------------------|--------------------------|
 |------------------------------|--------------------------|

|
| >
 
 |------------------------------|--------------------------|
 |-------10-(10)-(10)-(10)-(10)-|-(10)---------------------|
 |-6-7-6-----(6)--(7)--(6)--(6)-|--------------------------|
 |------------------------------|--------------------------|
 |------------------------------|--------------------------|
 |------------------------------|--------------------------|

|
| >
 
 |------------------------------|--------------------------|
 |------------------------------|--------------------------|
 |------------------------------|---x\\--(x)\\--(x)\\--(x)\\---|
 |------------------------------|---x\\--(x)\\--(x)\\--(x)\\---|
 |------------------------------|--------------------------|
 |------------------------------|--------------------------|

Verse
N.C.
Gtr III
 
 |-----------------------|-----------------------|
 |--------------------10-|-(10)------------------|
 |-11-12--11----9--------|----------7----9---9---|
 |-----------------------|-----------------------|
 |-----------------------|-----------------------|
 |-----------------------|-----------------------|

|
| Gtr IV
 
 |-10----(10)------------|--10----(10)-----------|
 |-----8---7----5-7-5----|------8---7----5-7-5---|
 |------------7--------7-|-------------7-------7-|
 |-----------------------|-----------------------|
 |-----------------------|-----------------------|
 |-----------------------|-----------------------|

|
| Gtr V
 
 |-----------------------|-----------------------|
 |-----------------------|-----------------------|
 |-11-12--11-------------|-----------------------|
 |-----------------------|-----------------------|
 |-----------------------|-----------------------|
 |-----------------------|-----------------------|
 |-----------------------|------------------------|
 |--------------10-------|--------10--------------|
 |-(9)-----7-----------9-|-(9)-----------9--------|
 |-----------------------|------------------------|
 |-----------------------|------------------------|
 |-----------------------|------------------------|

|
 
 |-10----(10)------------|-10----(10)-------------|
 |-----8---7-----5-7-5---|-----8---7-----5-7-5----|
 |------------7--------7-|------------7--------7--|
 |-----------------------|------------------------|
 |-----------------------|------------------------|
 |-----------------------|------------------------|

|
 
 |-----------------------|-12-----------14--------|
 |-----------------------|------------------------|
 |-----------------------|------------------------|
 |-----------------------|------------------------|
 |-----------------------|------------------------|
 |-----------------------|------------------------|
 |----------------------|-----------------------|
 |----------------------|-----------------------|
 |-(9)-----7----9-------|--(9)-----7----9-------|
 |----------------------|-----------------------|
 |----------------------|-----------------------|
 |----------------------|-----------------------|

|
 
 |-10----(10)-----------|--10----(10)-----------|
 |-----8---7----5-7-5---|------8---7----5-7-5---|
 |------------7-------7-|-------------7-------7-|
 |----------------------|-----------------------|
 |----------------------|-----------------------|
 |----------------------|-----------------------|

|
 
 |----------------------|-----------------------|
 |-15-------------------|-(15)------------------|
 |----------------------|-----------------------|
 |----------------------|-----------------------|
 |----------------------|-----------------------|
 |----------------------|-----------------------|
 |----------------------|-----------------------|
 |----------------------|-----------------------|
 |-(9)-----7----9-------|-(9)-----7----9--------|
 |----------------------|-----------------------|
 |----------------------|-----------------------|
 |----------------------|-----------------------|

|
 
 |-10----(10)-----------|-10----(10)------------|
 |-----8---7----5-7-5---|-----8---7----5-7-5----|
 |------------7-------7-|------------7-------7--|
 |----------------------|-----------------------|
 |----------------------|-----------------------|
 |----------------------|-----------------------|

|
 
 |----------------------|-----------------------|
 |-14-------------------|-15--------------------|
 |----------------------|-----------------------|
 |----------------------|-----------------------|
 |----------------------|-----------------------|
 |----------------------|-----------------------|

Gtr III
 
 |-----------------------|-----------------------|
 |--------------------10-|-(10)------------------|
 |-11-12--11----9--------|----------7----9---9---|
 |-----------------------|-----------------------|
 |-----------------------|-----------------------|
 |-----------------------|-----------------------|

|
| Gtr IV
 
 |-10----(10)------------|--10----(10)-----------|
 |-----8---7----5-7-5----|------8---7----5-7-5---|
 |------------7--------7-|-------------7-------7-|
 |-----------------------|-----------------------|
 |-----------------------|-----------------------|
 |-----------------------|-----------------------|

|
| Gtr V
 
 |-----------------------|-----------------------|
 |-----------------------|-----------------------|
 |-11-12--11-------------|-----------------------|
 |-----------------------|-----------------------|
 |-----------------------|-----------------------|
 |-----------------------|-----------------------|
 |-----------------------|------------------------|
 |--------------10-------|--------10--------------|
 |-(9)-----7-----------9-|-(9)-----------9--------|
 |-----------------------|------------------------|
 |-----------------------|------------------------|
 |-----------------------|------------------------|

|
 
 |-10----(10)------------|-10----(10)-------------|
 |-----8---7-----5-7-5---|-----8---7-----5-7-5----|
 |------------7--------7-|------------7--------7--|
 |-----------------------|------------------------|
 |-----------------------|------------------------|
 |-----------------------|------------------------|

|
 
 |-----------------------|-12-----------14--------|
 |-----------------------|------------------------|
 |-----------------------|------------------------|
 |-----------------------|------------------------|
 |-----------------------|------------------------|
 |-----------------------|------------------------|
 |----------------------|-----------------------|---------------|--------|
 |----------------------|-----------------------|---------------|--------|
 |-(9)-----7----9-------|--(9)-----7----9-------|-(9)----7-9----|-(9)----|
 |----------------------|-----------------------|---------------|--------|
 |----------------------|-----------------------|------9--------|--------|
 |----------------------|-----------------------|---------------|--------|

|
 
 |-10----(10)-----------|--10----(10)-----------|---------------|--------|
 |-----8---7----5-7-5---|------8---7----5-7-5---|---------------|--------|
 |------------7-------7-|-------------7-------7-|---------------|--------|
 |----------------------|-----------------------|--4------------|-(4)----|
 |----------------------|-----------------------|---------------|--------|
 |----------------------|-----------------------|---------------|--------|

|
 
 |----------------------|-----------------------|---------------|--------|
 |-15-------------------|-(15)------------------|---------------|--------|
 |----------------------|-----------------------|---------------|--------|
 |----------------------|-----------------------|---------------|--------|
 |----------------------|-----------------------|---------------|--------|
 |----------------------|-----------------------|---------------|--------|

Chorus
[B5]Gtr I[G5] [B5] [G5]
 
 |-------------|----------------|-------------------------|----------------|
 |-------------|----------------|-------------------------|----------------|
 |-------------|----------------|-------------------------|----------------|
 |-9-----9\\----|--5--------5----|--9--------9\\------------|--5--------5----|
 |-9-----9\\----|--5--------5----|--9--------9\\------------|--5--------5----|
 |-9-----9\\----|--5--------5----|--9--------9\\------------|--5--------5----|

|
| Gtr II
 
 |-------------|----------------|-------------------------|----------------|
 |-------------|----------------|-------------------------|----------------|
 |-4----11\\----|-14-14-14-14----|-18-18-18-18---19---18---|-14-14-14-14----|
 |-------------|-12-12-12-12----|-16-16-16-16--(16)-(16)--|-12-12-12-12----|
 |-------------|-12-12-12-12----|-16-16-16-16--(16)-(16)--|-12-12-12-12----|
 |-------------|----------------|-------------------------|----------------|

[B5] [G5]  
 
 |----------------|----------------|-5-5-5-5----|-5-5-5-5----|
 |----------------|----------------|-7-7-7-7----|-7-7-7-7----|
 |-11-11-11-11----|-11-11-11-11----|-7-7-7-7----|-7-7-7-7----|
 |-12-12-12-12----|-12-12-12-12----|-5-5-5-5----|-5-5-5-5----|
 |--9--9--9--9----|--9--9--9--9----|-5-5-5-5----|-5-5-5-5----|
 |--9--9--9--9----|--9--9--9--9----|-5-5-5-5----|-5-5-5-5----|

|
 
 |----------------|----------------|------------|------------|
 |----------------|----------------|------------|------------|
 |----------------|----------------|------------|------------|
 |--9--9--9--9----|--9--9--9--9----|-5-5-5-5----|-5-5-5-5----|
 |--9--9--9--9----|--9--9--9--9----|-5-5-5-5----|-5-5-5-5----|
 |--9--9--9--9----|--9--9--9--9----|-5-5-5-5----|-5-5-5-5----|

Bridge
[B5] [G5]>
 
 |----------------|----------------|-5--------|
 |----------------|----------------|-7--------|
 |-11-11-11-11----|-11-11-11-11----|-7--------|
 |-12-12-12-12----|-12-12-12-12----|-5--------|
 |--9--9--9--9----|--9--9--9--9----|-5--------|
 |--9--9--9--9----|--9--9--9--9----|-5--------|

|
| >
 
 |----------------|----------------|----------|
 |----------------|----------------|----------|
 |----------------|----------------|----------|
 |--9--9--9--9----|--9--9--9--9----|-5--------|
 |--9--9--9--9----|--9--9--9--9----|-5--------|
 |--9--9--9--9----|--9--9--9--9----|-5--------|
 |-(5)--------|-(5)--------|-(5)--------|-----|
 |-(7)--------|-(7)--------|-(7)--------|-----|
 |-(7)--------|-(7)--------|-(7)--------|-----|
 |-(5)--------|-(5)--------|-(5)--------|-----|
 |-(5)--------|-(5)--------|-(5)--------|-----|
 |-(5)--------|-(5)--------|-(5)--------|-----|

|
 
 |------------|------------|------------|-----|
 |------------|------------|------------|-----|
 |------------|------------|------------|-----|
 |-(5)--------|-(5)--------|-(5)--------|-----|
 |-(5)--------|-(5)--------|-(5)--------|-----|
 |-(5)--------|-(5)--------|-(5)--------|-----|

Verse 2
Q=138
N.C.
Gtr III
 
 ||-------------------|----------------|
 ||o------------------|----------------|
 ||----7-9------------|-(9)------------|
 ||--9----------------|----------------|
 ||o------------------|----------------|
 ||-------------------|----------------|

|
| Gtr IV
 
 ||-------------------|----------------|
 ||o-------10p(7)--8--|-(8)------------|
 ||-------------------|----------------|
 ||--9----------------|----------------|
 ||o------------------|----------------|
 ||-------------------|----------------|

|
| Gtr V
 
 ||-------------------|-14--15-27------|
 ||o------------------|----------------|
 ||-------------------|----------------|
 ||-------------------|----------------|
 ||o------------------|----------------|
 ||-------------------|----------------|

4x
 
 |------------------|---------------------||
 |------------------|--------------------o||
 |---7-9------------|-(9)-----------------||
 |-9----------------|---------------------||
 |------------------|--------------------o||
 |------------------|---------------------||

|
| 4x
 
 |------------------|---------------------||
 |-------10p(7)--8--|-(8)----------------o||
 |------------------|------9p7-9h11-9h11--||
 |-9----------------|---------------------||
 |------------------|--------------------o||
 |------------------|---------------------||

|
| 4x
 
 |------------------|---------------------||
 |------------------|--------------------o||
 |------------------|---------------------||
 |------------------|---------------------||
 |------------------|--------------------o||
 |------------------|---------------------||

Interlude
Q=154
B5 N.C. G5 B5 N.C. G5 E5
Gtr I
 
 |----------------|------------|----------------|-------------|
 |----------------|------------|----------------|-------------|
 |------7--6\\-----|------------|------7--6\\-----|-------------|
 |-9-----------5--|-(5)--------|-9-----------5--|-(5)----2----|
 |-9----5--4\\--5--|-(5)--------|-9----5--4\\--5--|-(5)----2----|
 |-9-----------5--|-(5)--------|-9-----------5--|-(5)----2----|

|
| Gtr II
 
 |----------------|------------|----------------|-------------|
 |----------------|------------|----------------|-------------|
 |-----11-12\\-----|------------|-----11-12\\-----|-------------|
 |-9-----------5--|-(5)--------|-9-----------5--|-(5)----2----|
 |-9----9-10\\--5--|-(5)--------|-9----9-10\\--5--|-(5)----2----|
 |-9-----------5--|-(5)--------|-9-----------5--|-(5)----2----|

H=H
B5 N.C. G5 B5 N.C. G5 E5
 
 |----------------|------------|----------------|--------------||
 |----------------|------------|----------------|--------------||
 |------7--6\\-----|------------|------7--6\\-----|--------------||
 |-9-----------5--|-(5)--------|-9-----------5--|-(5)------2---||
 |-9----5--4\\--5--|-(5)--------|-9----5--4\\--5--|-(5)------2---||
 |-9-----------5--|-(5)--------|-9-----------5--|-(5)------2---||

|
 
 |----------------|------------|----------------|--------------||
 |----------------|------------|----------------|--------------||
 |-----11-12\\-----|------------|-----11-12\\-----|--------------||
 |-9-----------5--|-(5)--------|-9-----------5--|-(5)------2---||
 |-9----9-10\\--5--|-(5)--------|-9----9-10\\--5--|-(5)------2---||
 |-9-----------5--|-(5)--------|-9-----------5--|-(5)------2---||

Q=168
B5 N.C. G5 B5 N.C. G5 E5
 
 ||-----------------|------------|----------------|-----------------||
 ||o----------------|------------|----------------|----------------o||
 ||-------7--6\\-----|------------|------7--6\\-----|-----------------||
 ||--9-----------5--|-(5)--------|-9-----------5--|-(5)----2-2-2-2--||
 ||o-9----5--4\\--5--|-(5)--------|-9----5--4\\--5--|-(5)----2-2-2-2-o||
 ||--9-----------5--|-(5)--------|-9-----------5--|-(5)----2-2-2-2--||

|
 
 ||-----------------|------------|----------------|-----------------||
 ||o----------------|------------|----------------|----------------o||
 ||------11-12\\-----|------------|-----11-12\\-----|-----------------||
 ||--9-----------5--|-(5)--------|-9-----------5--|-(5)----2-2-2-2--||
 ||o-9----9-10\\--5--|-(5)--------|-9----9-10\\--5--|-(5)----2-2-2-2-o||
 ||--9-----------5--|-(5)--------|-9-----------5--|-(5)----2-2-2-2--||

B5 N.C. G5 B5 N.C. G5
Gtr I
 
 ||----------------------|-------------------|---------------------|
 ||o---------------------|-------------------|---------------------|
 ||----------7--6\\-------|-------------------|---------7--6\\-------|
 ||---9--------------5---|-(5)---------------|--9--------------5---|
 ||o--9------5--4\\---5---|-(5)---------------|--9------5--4\\---5---|
 ||---9--------------5---|-(5)---------------|--9--------------5---|

|
| Gtr II
 
 ||----------------------|-------------------|---------------------|
 ||o---------------------|-------------------|---------------------|
 ||---------11-12\\-------|-------------------|--------11-12\\-------|
 ||---9--------------5---|-(5)---------------|--9--------------5---|
 ||o--9------9-10\\---5---|-(5)---------------|--9------9-10\\---5---|
 ||---9--------------5---|-(5)---------------|--9--------------5---|

|
| Gtr VI
 
 ||--10------------------|-10----------------|-10------------------|
 ||o----8-7-----5--7-5---|-----8-7---5-7-5---|----8-7-----5--7-5---|
 ||----------7---------7-|---------7-------7-|---------7---------7-|
 ||----------------------|-------------------|---------------------|
 ||o---------------------|-------------------|---------------------|
 ||----------------------|-------------------|---------------------|

H.=H
E5 N.C.
 
 |--------------------||-----------------------||
 |-------------------o||-----------------------||
 |--------------------||-/11--------9-11-9-----||
 |-(5)-------2-2-2-2--||-----9-11-9--------12--||
 |-(5)-------2-2-2-2-o||-----------------------||
 |-(5)-------2-2-2-2--||-----------------------||

|
 
 |--------------------||--10-------------------||
 |-------------------o||-----8--7---5--7-5-----||
 |--------------------||----------7---------7--||
 |-(5)-------2-2-2-2--||-----------------------||
 |-(5)-------2-2-2-2-o||-----------------------||
 |-(5)-------2-2-2-2--||-----------------------||

|
 
 |-10-----------------||-----------------------||
 |-----8-7---5-7-5---o||-----------------------||
 |---------7-------7--||-----------------------||
 |--------------------||-----------------------||
 |-------------------o||-----------------------||
 |--------------------||-----------------------||

Out-Chorus
Q=156
[B5] [G5]  
 
 |--------------|-------------------|
 |--------------|-------------------|
 |--------------|-------------------|
 |--9-----9\\----|---5---------5-----|
 |--9-----9\\----|---5---------5-----|
 |--9-----9\\----|---5---------5-----|

|
 
 |--------------|-------------------|
 |--------------|-------------------|
 |--4----11\\----|--14--14-14-14-----|
 |--------------|--12--12-12-12-----|
 |--------------|--12--12-12-12-----|
 |--------------|-------------------|

|
 
 |-10-----------|-(10)--------------|
 |--------------|-------------------|
 |--------------|-------------------|
 |--------------|-------------------|
 |--------------|-------------------|
 |--------------|-------------------|

[B5] [G5]  
 
 |----------------------------|------------------|
 |----------------------------|------------------|
 |----------------------------|------------------|
 |---9---------9\\-------------|---5---------5----|
 |---9---------9\\-------------|---5---------5----|
 |---9---------9\\-------------|---5---------5----|

|
 
 |----------------------------|------------------|
 |----------------------------|------------------|
 |--18--18-18-18---19---18----|--14--14-14-14----|
 |--16--16-16-16--(16)-(16)---|--12--12-12-12----|
 |--16--16-16-16--(16)-(16)---|--12--12-12-12----|
 |----------------------------|------------------|

|
| >
 
 |-(10)-----------------------|-(10)-------------|
 |----------------------------|------------------|
 |----------------------------|------------------|
 |----------------------------|------------------|
 |----------------------------|------------------|
 |----------------------------|------------------|

[B5]Gtr I[G5]
4x
 
 ||------------------|-------------------|---5--5-5-5-----|-5-5-5-5-----||
 ||o-----------------|-------------------|---7--7-7-7-----|-7-7-7-7----o||
 ||--11-11-11-11-----|--11--11-11-11-----|---7--7-7-7-----|-7-7-7-7-----||
 ||--12-12-12-12-----|--12--12-12-12-----|---5--5-5-5-----|-5-5-5-5-----||
 ||o--9--9--9--9-----|---9---9--9--9-----|---5--5-5-5-----|-5-5-5-5----o||
 ||---9--9--9--9-----|---9---9--9--9-----|---5--5-5-5-----|-5-5-5-5-----||

|
| Gtr II
| 4x
 
 ||------------------|-------------------|----------------|-------------||
 ||o-----------------|-------------------|----------------|------------o||
 ||------------------|-------------------|----------------|-------------||
 ||---9--9--9--9-----|---9---9--9--9-----|---5--5-5-5-----|-5-5-5-5-----||
 ||o--9--9--9--9-----|---9---9--9--9-----|---5--5-5-5-----|-5-5-5-5----o||
 ||---9--9--9--9-----|---9---9--9--9-----|---5--5-5-5-----|-5-5-5-5-----||

|
| Gtr VI
| <
| 4x
 
 ||--10--------------|-(10)--------------|-(10)-----------|-9-----------||
 ||o-----------------|-------------------|----------------|------------o||
 ||------------------|-------------------|----------------|-------------||
 ||------------------|-------------------|----------------|-------------||
 ||o-----------------|-------------------|----------------|------------o||
 ||------------------|-------------------|----------------|-------------||

[B5]Gtr I
>
 
 |--------------|------------|------------|
 |--------------|------------|------------|
 |--------------|------------|------------|
 |-9-9--9-9--9--|-(9)--------|-(9)--------|
 |-9-9--9-9--9--|-(9)--------|-(9)--------|
 |-9-9--9-9--9--|-(9)--------|-(9)--------|

|
| Gtr II
| >
 
 |--------------|------------|------------|
 |--------------|------------|------------|
 |--------------|------------|------------|
 |-9-9--9-9--9--|-(9)--------|-(9)--------|
 |-9-9--9-9--9--|-(9)--------|-(9)--------|
 |-9-9--9-9--9--|-(9)--------|-(9)--------|
 |------------|------------|-------------------------|
 |------------|------------|-------------------------|
 |------------|------------|-------------------------|
 |-(9)--------|-(9)--------|-(9)---------------------|
 |-(9)--------|-(9)--------|-(9)---------------------|
 |-(9)--------|-(9)--------|-(9)---------------------|

|
| >
| TP TP TP TP
 
 |------------|------------|-------------------------|
 |------------|------------|-------------------------|
 |------------|------------|-------------------------|
 |-(9)--------|-(9)--------|-------------------------|
 |-(9)--------|-(9)--------|--x\\--(x)\\--(x)\\--(x)\\---|
 |-(9)--------|-(9)--------|--x\\--(x)\\--(x)\\--(x)\\---|

Outro
Q=134
[F#sus4/B]Gtrs III, IV[Dsus4/G]
4x
 
 ||---9--9---9--9----9-|--9--9---9--9----9-|-5-5--5-5---5-|-5-5-5-5--5----||
 ||o-12-12--12-12---12-|-12-12--12-12---12-|-8-8--8-8---8-|-8-8-8-8--8---o||
 ||--11-11--11-11---11-|-11-11--11-11---11-|-7-7--7-7---7-|-7-7-7-7--7----||
 ||---9--9---9--9----9-|--9--9---9--9----9-|-5-5--5-5---5-|-5-5-5-5--5----||
 ||o--9--9---9--9----9-|--9--9---9--9----9-|-5-5--5-5---5-|-5-5-5-5--5---o||
 ||---9--9---9--9----9-|--9--9---9--9----9-|-5-5--5-5---5-|-5-5-5-5--5----||
 --------------------------------------------------------------------------------

Tablature Legend
 
 ----------------

h - hammer-on
p - pull-off
b - bend
pb - pre-bend
r - bend release (if no number after the r, then release immediately)
/\\ - slide into or out of (from/to "nowhere")
s - legato slide
S - shift slide
<n> - natural harmonic
(n) - artificial harmonic
n(n) - tapped harmonic
~ - vibrato
tr - trill
T - tap
TP - trem. picking
PM - palm muting
\\n/ - tremolo bar dip; n = amount to dip
\\n - tremolo bar down
n/ - tremolo bar up
/n\\ - tremolo bar inverted dip
= - hold bend; also acts as connecting device for hammers/pulls
<> - volume swell (louder/softer)
x - on rhythm slash represents muted slash
o - on rhythm slash represents single note slash
Misc Legend
 
 -----------

| - bar
|| - double bar
||o - repeat start
o|| - repeat end
*| - double bar (ending)
: - bar (freetime)
$ - Segno
& - Coda
Tempo markers - <E/E./Q/Q./H/H.> = BPM(8/16=s8/s16), where s8 = swing 8ths, s16 = swing 16ths

Important: The song above is NOT stored on the Chordie server. The original song is hosted at www.xguitar.com. Chordie works as a search engine and provides on-the-fly formatting. Chordie does not index songs against artists'/composers' will. To remove this song please click here.

Text color:
Chord color:
Chord grids: 
Font size:    
Page size: 

B5 D/B Dsus4/G F#sus4/B G5
Rate #4 of 5 versions

Login - add to songbook

SHARE PAGE  



You need to log in to post comments