Guitar Tabs, Chords and Lyrics
Major upgrade!! After one year development the new version of Chordie is now online! Please give feedback.


Rain When I Die  Alice in Chains

Guitar Tab Drop D Tuning
Intro
____
[C] [D] [C] [C#]  
 
 |-----------------------------------------|
 |-----------------------------------------|
 |-----5/7-5b6----5/7-5b6----5/7-5b6-------|
 |-----5/7-5b6----5/7-5b6----5/7-5b6-------|
 |-----3/5-3b4----3/5-3b4----3/5-3b4-------|
 |-----------------------------------------|

Verse
____
[D] [C] [A] [F] [F] [C] [D] [F]  
 
 |-----------------------------------------|
 |-----------------------------------------|
 |-----------------------------------------|
 |--------------------3--------------------|
 |---5-p-3---0--------------3-h-5----------|
 |----------------3-----------------3------|

[D] [C] [A] [F] [F] [C] [D] [C]  
 
 |-----------------------------------------|
 |-----------------------------------------|
 |-----------------------------------------|
 |--------------------3--------------------|
 |---5-p-3---0--------------3-h-5-----3----|
 |----------------3------------------------|

Chorus
_____
[D] [F] [A] [D] [A#] [F] [G] [G]  
 
 |------------------------1----------------|
 |---------------------------1-------------|
 |------------------3----------------------|
 |------------0-----3------------3-----5--5|
 |----------0-------1------------3-----5--5|
 |---0-h-3-----------------------3-----5--5|

[A#] [F] [G] [G]  
 
 |------------------------1----------------|
 |---------------------------1-------------|
 |------------------3----------------------|
 |------------------3------------3-----5--5|
 |------------------1------------3-----5--5|
 |-------------------------------3-----5--5|

[D] [F] [A] [D] [A#] [F] [G] [G]  
 
 |------------------------1----------------|
 |---------------------------1-------------|
 |------------------3----------------------|
 |------------0-----3------------3-----5--5|
 |----------0-------1------------3-----5--5|
 |---0-h-3-----------------------3-----5--5|

[A#] [F] [C] [C]  
 
 |------------------------1----------------|
 |---------------------------1-------------|
 |------------------3------------3-----5--5|
 |------------------3------------3-----5--5|
 |------------------1------------1-----3--3|
 |-----------------------------------------|

Bridge
_____
C D D ring through
 
 |-----------------------------------------|
 |-----------------------------------------|
 |------5-/-7----7------(7)----------------|
 |------5-/-7----7------(7)----------------|
 |------3-/-5----5------(5)----------------|
 |-----------------------------------------|

[C] [D] [D]  
 
 |-----------------------------------------|
 |-----------------------------------------|
 |------5-/-7----7------(7)----------------|
 |------5-/-7----7------(7)----------------|
 |------3-/-5----5------(5)----------------|
 |-----------------------------------------|

[F] [F] [F] [G] [E]  
 
 |-----------------------------------------|
 |-----------------------------------------|
 |--10------10----10/-12----9--------------|
 |--10------10----10/-12----9--------------|
 |--8-------8-----8-/-10----7--------------|
 |-----------------------------------------|

[E] [E] [F] [D]  
 
 |-----------------------------------------|
 |-----------------------------------------|
 |---9---9/10-----7------------------------|
 |---9---9/10-----7------------------------|
 |---7---7/8------5------------------------|
 |-----------------------------------------|

[F] [F] [F] [G] [E]  
 
 |-----------------------------------------|
 |-----------------------------------------|
 |--10------10----10/-12----9--------------|
 |--10------10----10/-12----9--------------|
 |--8-------8-----8-/-10----7--------------|
 |-----------------------------------------|

[E] [E] [F] [D]  
 
 |-----------------------------------------|
 |-----------------------------------------|
 |---9---9/10-----7------------------------|
 |---9---9/10-----7------------------------|
 |---7---7/8------5------------------------|
 |-----------------------------------------|
 |-----------------------------------------|
 |-------------------3---------------------|
 |------------2----------------------------|
 |----3-p-0------3------3----0-0--3--------|
 |-----------------------------------------|
 |-----------------------------------------|
 |-----------------------------------------|
 |-------------------3---------------------|
 |------------2----------------------------|
 |----3-p-0------3------3----0-0-----------|
 |---------------------------------3-------|
 |-----------------------------------------|
 |-----------------------------------------|
 |-------------------3---------------------|
 |------------2----------------------------|
 |----3-p-0------3------3----0-0--3--------|
 |-----------------------------------------|
 |-----------------------------------------|
 |-----------------------------------------|
 |-------------------3---------------------|
 |------------2----------------------------|
 |----3-p-0------3------3----0-0-----------|
 |-----------------------------------------|
 |-----------------------------------------|

Outro
____
[C] [D] [C] [C#]  
 
 |-----------------------------------------|
 |-----------------------------------------|
 |-----5/7-5b6----5/7-5b6----5/7-5b6-------|
 |-----5/7-5b6----5/7-5b6----5/7-5b6-------|
 |-----3/5-3b4----3/5-3b4----3/5-3b4-------|
 |-----------------------------------------|

Chart
Bass Intro 10X
Bass Intro 2X + Guitar Intro w/ vocals
Verse Guitar and Bass 6X
Chorus
Verse Guitar and Bass 6X
Chorus
Verse Guitar and Bass 2X
Bridge Guitar + Bass Bridge 8X
Verse Guitar and Bass 6x
Chorus
Verse Guitar and Bass 2x
Outro Guitar 4x + Bass 8X

Important: The song above is NOT stored on the Chordie server. The original song is hosted at www.xguitar.com. Chordie works as a search engine and provides on-the-fly formatting. Chordie does not index songs against artists'/composers' will. To remove this song please click here.

Text color:
Chord color:
Chord grids: 
Font size:    
Page size: 

A A# C C# D E F G
Rate #6 of 9 versions

Login - add to songbook

SHARE PAGE  




You need to log in to post comments