Guitar Tabs, Chords and Lyrics
Server problems seems to be fixed. Chordie has been experiencing problems with songs disappearing. These issues now seems to be fixed, but still verifying the fix. If you find anything strange, please email admin@chordie.com.


My Little Needle  Alkaline Trio

 
 -------------------------------------------------------------------------------

MY LITTLE NEEDLE - The Alkaline Trio
 
 -------------------------------------------------------------------------------

By:Reginald R.Putty?..(Uvandal003@aol.)
Hell Yeah?"gotta be like Ike"~~~tommy J Foley
Lets not be offended by the title here. It?s a lot better than OK!!
How bout those receeding hairlines!!!!
Yubba dubba do
KEY
/---slide to
x---left hand mute (TIM U IDIOT)
pm? palm mute
INTRODUCTION PART1
 
 e|-----------------------------------------------------------------------
 B|----------------------------------------------------------------------
 G|-4-4-4-4----4-4---4-4/-6-6/-8-8-/-9-9------------------------------
 D|-4-4-4-4----4-4---x-x--x-x--x-x---x-x-------------------------
 A|-2-2-2-2----2-2--?2-2/-4-4/-6-6/--7-7----------------------------
 E|---------------------------------------------------------------------

PART 2
 
 e|--------------------------------------------------------------------
 B|------------------------------------------------------------------------
 G|-4-4-4-4- 4-4----------------------------------------------------------
 D|-4-4-4-4- 4-4----4-4/-6-6-/-8-8-/-9-9----------------------------------
 A|-2-2-2-2- 2-2----x-x--x-x---x-x---x-x----------------------------------
 E|------------------2-2/-4-4-/-6-6-/-7-7------------------------------------

VERSE-play these chords
 
 e|---------------------------------------------------------------------------|
 B|---------------------------------------------------------------------------|
 G|-9--------------------------------------------------------------------------|
 D|-9--7---9---------------------------------------------------------------------|
 A|-7--7---9---------------------------------------------------------------------|
 E|----5---7--------------------------------------------------------------------|

PRE Chorus 1 LET RING AND BASS PLAYS UNTIL CHORUS
 
 e|---------------------------------------------------------------------------|
 B|---------------------------------------------------------------------------|
 G|-9--------------------------------------------------------------------------|
 D|-9--------------------------------------------------------------------------|
 A|-7--------------------------------------------------------------------------|
 E|---------------------------------------------------------------------------|

CHORUS-"So where are you???????..?" UP AND DOWN STROKES ON THE OCTAVES BITCH!
 
 e|---------------------------------------------------------------------------|
 B|---------------------------------------------------------------------------|
 G|--9-9-9-----9-9-9-----9-9-9----9-9-9--------------------------------------
 D|--x-x-x-----x-x-x-----x-x-x----x-x-x----6-6-6-6---7-7-7-7------------------
 A|--7-7-7-----7-7-7-----7-7-7----7-7-7----6-6-6-6---7-7-7-7-----------------------
 E|----------------------------------------4-4-4-4---5-5-5-5--------------------------|

Pre chorous 2
 
 e|---------------------------------------------------------------------------|
 B|---------------------------------------------------------------------------|
 G|--9-9-9-9----------9-----------------------------------------------------------
 D|--9-9-9-9---7-7-7--9---RING----------------------------------------------------
 A|--7-7-7-7---7-7-7--7-----------------------------------------------------
 E|------------5-5-5-------------------------------------------------------------|

PM . . . . . . .
THE EPIC HARDCORE STYLE BRIDGE
 
 ------------------------------------------------|
 ------------------------------------------------|
 -9-9-9-9-9-9-9-9-9-9-9-9\\9-8-8-8/9-9-9-9-9-9----|
 -x-x-x-x-x-x-x-x-x-x-x-x-x-x-x-x-x-x-x-x-x-x----|
 -7-7-7-7-7-7-7-7-7-7-7-7\\6-6-6-6/7-7-7-7-7-7----|
 ------------------------------------------------|
 ------------------------------------------------|
 ------------------------------------------------|
 -9-9-9-9-9-9-9-9-9-9-9-9\\9-8-8-8/9-9-9-9-9-9----|
 -x-x-x-x-x-x-x-x-x-x-x-x-x-x-x-x-x-x-x-x-x-x----|
 -7-7-7-7-7-7-7-7-7-7-7-7\\6-6-6-6/7-7-7-7-7-7----|
 ------------------------------------------------|
 ------------------------------------------------|
 ------------------------------------------------|
 -14-14-14-13-13-13-11-11-11-9-9-9-9-9-9-9-9-----|
 -x--x--x--x--x--x--x--x--x--x-x-x-x-x-x-x-x-----|
 -12-12-12-11-11-11-9--9--9--7-7-7-7-7-7-7-7-----|
 ------------------------------------------------|
 ------------------------------------------------|
 ------------------------------------------------|
 -14-14-14-13-13-13-11-11-11-9-9-9\\8-8-8/9-9-----|
 -x--x--x--x--x--x--x--x--x--x-x-x-x-x-x-x-x-----|
 -12-12-12-11-11-11-9--9--9--7-7-7\\6-6-6/7-7-----|
 ------------------------------------------------|
 ------------------------------------------------|
 ------------------------------------------------|
 -14-14-14-13-13-13-11-11-11-9-9-9-9-9-9-9-9-----|
 -x--x--x--x--x--x--x--x--x--x-x-x-x-x-x-x-x-----|
 -12-12-12-11-11-11-9--9--9--7-7-7-7-7-7-7-7-----|
 ------------------------------------------------|
 ------------------------------------------------|
 ------------------------------------------------|
 -14--13--11--9---14--13--14--16----------------|
 -x---x---x---x---x---x---x---x-----------------|
 -12--11--9---7---12--11--12--14----------------|
 ------------------------------------------------|

END ON LET RING
[G] [9]  
[D] [9]  
[A]SO[7]NG FLOW
Intro X2
Verse--play with the song
Pre Chorus 1 X389?or is it once??
Chorus X2
Intro X2
Verse
Prechorus 2 X1
Chorus X2
Bridge X1
End on
Take ride on the hillbilly trolley..=)
 
 -------------------------------------------------------------------------------


Important: The song above is NOT stored on the Chordie server. The original song is hosted at www.xguitar.com. Chordie works as a search engine and provides on-the-fly formatting. Chordie does not index songs against artists'/composers' will. To remove this song please click here.

Text color:
Chord color:
Chord grids: 
Font size:    
Page size: 

A D G
Rate #2 of 2 versions

Login - add to songbook

SHARE PAGE  




You need to log in to post comments