Guitar Tabs, Chords and Lyrics
Server problems seems to be fixed. Chordie has been experiencing problems with songs disappearing. These issues now seems to be fixed, but still verifying the fix. If you find anything strange, please email admin@chordie.com.


Donner Party (All Night)  Alkaline Trio

As recorded by Alkaline Trio
Words and Music by Alkaline Trio
Transcribed by Andy B.
Intro/Verse
Q=120
[F#5] [A5] [D5] 
Gtrs I, II
 
 ||---------------------------------------------|
 ||o--------------------------------------------|
 ||--11-(11)-11-11-11-11-11-------------------7-|
 ||--11-(11)-11-11-11-11-11-7-(7)-7-7-7-7-7-7-7-|
 ||o--9--(9)--9--9--9--9--9-7-(7)-7-7-7-7-7-7-5-|
 ||-------------------------5-(5)-5-5-5-5-5-5---|

7x
 
 |-------------------------------------||
 |------------------------------------o||
 |-(7)-7-7-7-7-7-7-7-7-7-7-7-7-7-7-7---||
 |-(7)-7-7-7-7-7-7-7-7-7-7-7-7-7-7-7---||
 |-(5)-5-5-5-5-5-5-5-5-5-5-5-5-5-5-5--o||
 |-------------------------------------||

[F#5] [A5] [D5]  
 
 |--------------------------------------------|
 |--------------------------------------------|
 |-11-(11)-11-11-11-11-11-------------------7-|
 |-11-(11)-11-11-11-11-11-7-(7)-7-7-7-7-7-7-7-|
 |--9--(9)--9--9--9--9--9-7-(7)-7-7-7-7-7-7-5-|
 |------------------------5-(5)-5-5-5-5-5-5---|

[E5]  
 
 |-----------------------------------|
 |-----------------------------------|
 |-(7)-7-7-7-7-7-7-7-9-9-9-9-9-9-9-9-|
 |-(7)-7-7-7-7-7-7-7-9-9-9-9-9-9-9-9-|
 |-(5)-5-5-5-5-5-5-5-7-7-7-7-7-7-7-7-|
 |-----------------------------------|

Chorus
[A]  
 
 ||----------------------------------|---------------------------------|
 ||o---------------------------------|---------------------------------|
 ||----------------------------------|---------------------------------|
 ||--7-7-7-7-7-7-7-7-7-7-7-7-7-7-7-7-|-7-7-7-7-7-7-7-7-7-7-7-7-7-7-7-7-|
 ||o-x-x-x-x-x-x-x-x-x-x-x-x-x-x-x-x-|-x-x-x-x-x-x-x-x-x-x-x-x-x-x-x-x-|
 ||--5-5-5-5-5-5-5-5-5-5-5-5-5-5-5-5-|-5-5-5-5-5-5-5-5-5-5-5-5-5-5-5-5-|

[A/C#]  
 
 |-------------------------------------------------|
 |-------------------------------------------------|
 |-------------------------------------------------|
 |-11-11-11-11-11-11-11-11-11-11-11-11-11-11-11-11-|
 |-12-12-12-12-12-12-12-12-12-12-12-12-12-12-12-12-|
 |--9--9--9--9--9--9--9--9--9--9--9--9--9--9--9--9-|

[F#5] [E5]  
 
 |------------------------------------------||
 |-----------------------------------------o||
 |------------------------------------------||
 |-11-11-11-11-11-11-11-11-9-9-9-9-9-9-9-9--||
 |--9--9--9--9--9--9--9--9-7-7-7-7-7-7-7-7-o||
 |------------------------------------------||

[D5] [E5]  
 
 |-------------------------|------------------|
 |-------------------------|------------------|
 |-------------------------|------------------|
 |-7-7-7-7-7-x-7-7-7-7-7-x-|-7-7-7-7-7-x-9\---|
 |-5-5-5-5-5-x-5-5-5-5-5-x-|-5-5-5-5-5-x-7\---|
 |-------------------------|------------------|

Verse
[F#5] [A5] [D5]  
 
 ||---------------------------------------------|
 ||o--------------------------------------------|
 ||--11-(11)-11-11-11-11-11-------------------7-|
 ||--11-(11)-11-11-11-11-11-7-(7)-7-7-7-7-7-7-7-|
 ||o--9--(9)--9--9--9--9--9-7-(7)-7-7-7-7-7-7-5-|
 ||-------------------------5-(5)-5-5-5-5-5-5---|
 |------------------------------------||
 |-----------------------------------o||
 |-(7)-7-7-7-7-7-7-7-7-7-7-7-7-7-7-7--||
 |-(7)-7-7-7-7-7-7-7-7-7-7-7-7-7-7-7--||
 |-(5)-5-5-5-5-5-5-5-5-5-5-5-5-5-5-5-o||
 |------------------------------------||

[F#5] [A5] [D5] 3x
 
 ||-------------|-------||
 ||o------------|------o||
 ||--11---------|-7-----||
 ||--11----7----|-7-----||
 ||o--9----7----|-5----o||
 ||--------5----|-------||

[F#5] [A5] [D5] [E5]  
 
 |------------|----------------------|
 |------------|----------------------|
 |-11---------|-7----9-9-9-9-9-9-9-9-|
 |-11----7----|-7----9-9-9-9-9-9-9-9-|
 |--9----7----|-5----7-7-7-7-7-7-7-7-|
 |-------5----|----------------------|

[A]  
 
 ||----------------------------------|---------------------------------|
 ||o---------------------------------|---------------------------------|
 ||----------------------------------|---------------------------------|
 ||--7-7-7-7-7-7-7-7-7-7-7-7-7-7-7-7-|-7-7-7-7-7-7-7-7-7-7-7-7-7-7-7-7-|
 ||o-x-x-x-x-x-x-x-x-x-x-x-x-x-x-x-x-|-x-x-x-x-x-x-x-x-x-x-x-x-x-x-x-x-|
 ||--5-5-5-5-5-5-5-5-5-5-5-5-5-5-5-5-|-5-5-5-5-5-5-5-5-5-5-5-5-5-5-5-5-|

[A/C#]  
 
 |-------------------------------------------------|
 |-------------------------------------------------|
 |-------------------------------------------------|
 |-11-11-11-11-11-11-11-11-11-11-11-11-11-11-11-11-|
 |-12-12-12-12-12-12-12-12-12-12-12-12-12-12-12-12-|
 |--9--9--9--9--9--9--9--9--9--9--9--9--9--9--9--9-|

[F#5] [E5]  
 
 |------------------------------------------||
 |-----------------------------------------o||
 |------------------------------------------||
 |-11-11-11-11-11-11-11-11-9-9-9-9-9-9-9-9--||
 |--9--9--9--9--9--9--9--9-7-7-7-7-7-7-7-7-o||
 |------------------------------------------||

[D5] [E5]  
 
 |-------------------------|------------------|
 |-------------------------|------------------|
 |-------------------------|------------------|
 |-7-7-7-7-7-x-7-7-7-7-7-x-|-7-7-7-7-7-x-9\---|
 |-5-5-5-5-5-x-5-5-5-5-5-x-|-5-5-5-5-5-x-7\---|
 |-------------------------|------------------|

Bridge
[D5] [A/C#] [A] [Asus2/B] [D5] [A/C#] [A] [Asus2/B]  
 
 |--------------|-------------|--------------|--------------|
 |--------------|-------------|--------------|--------------|
 |-7p===(6)-----|-------------|-7p===(6)-----|--------------|
 |-7----(7)-----|-7---(7)-----|-7----(7)-----|-7---(7)------|
 |-5---\(4)-----|-x---(x)-----|-5---\(4)-----|-x---(x)------|
 |--------------|-5h==(7)-----|--------------|-5h==(7)------|

[D5] [A/C#] [A] [Asus2/B]  
 
 ||----------------------|----------------------||
 ||o---------------------|---------------------o||
 ||--7-7-7-7--6-6-6-6----|----------------------||
 ||--7-7-7-7--7-7-7-7----|-7-7-7-7--7-7-7-7-----||
 ||o-5-5-5-5--4-4-4-4----|-x-x-x-x--x-x-x-x----o||
 ||----------------------|-5-5-5-5--7-7-7-7-----||

Outro
[A]  
 
 ||----------------------------------|---------------------------------|
 ||o---------------------------------|---------------------------------|
 ||----------------------------------|---------------------------------|
 ||--7-7-7-7-7-7-7-7-7-7-7-7-7-7-7-7-|-7-7-7-7-7-7-7-7-7-7-7-7-7-7-7-7-|
 ||o-x-x-x-x-x-x-x-x-x-x-x-x-x-x-x-x-|-x-x-x-x-x-x-x-x-x-x-x-x-x-x-x-x-|
 ||--5-5-5-5-5-5-5-5-5-5-5-5-5-5-5-5-|-5-5-5-5-5-5-5-5-5-5-5-5-5-5-5-5-|

[A/C#]  
 
 |-------------------------------------------------|
 |-------------------------------------------------|
 |-------------------------------------------------|
 |-11-11-11-11-11-11-11-11-11-11-11-11-11-11-11-11-|
 |-12-12-12-12-12-12-12-12-12-12-12-12-12-12-12-12-|
 |--9--9--9--9--9--9--9--9--9--9--9--9--9--9--9--9-|

[F#5] [E5]  
 
 |------------------------------------------||
 |-----------------------------------------o||
 |------------------------------------------||
 |-11-11-11-11-11-11-11-11-9-9-9-9-9-9-9-9--||
 |--9--9--9--9--9--9--9--9-7-7-7-7-7-7-7-7-o||
 |------------------------------------------||

[D5] [E5] [A5]  
 
 |---------------------------------|----------------------*|
 |---------------------------------|----------------------*|
 |---------------------------------|--------------------2-*|
 |-7-7-7-7-7-7-7-7-7-7-7-7-7-7-7-7-|-7-7-7-7-7-7-7-7-9--2-*|
 |-5-5-5-5-5-5-5-5-5-5-5-5-5-5-5-5-|-5-5-5-5-5-5-5-5-7--0-*|
 |---------------------------------|----------------------*|

=== means pull off

Important: The song above is NOT stored on the Chordie server. The original song is hosted at www.xguitar.com. Chordie works as a search engine and provides on-the-fly formatting. Chordie does not index songs against artists'/composers' will. To remove this song please click here.

Text color:
Chord color:
Chord grids: 
Font size:    
Page size: 

A A/C# A5 Asus2/B D5 E5 F#5
Rate #1 of 1 versions

Login - add to songbook

SHARE PAGE  



You need to log in to post comments