Guitar Tabs, Chords and Lyrics
Major upgrade!! After one year development the new version of Chordie is now online! Please give feedback.


Weâ??ve Had Enough   Alkaline Trio

 
 E-22-00-22-00-2---------22-00-22-00-2--------22-00-22-00-2---------
 A-------------------------------------444444----------------2222222
 D---------------2222222--------------------------------------------
 G------------------------------------------------------------------
 B------------------------------------------------------------------
 E------------------------------------------------------------------
 E-22-44-55-44--------------
 A-------------22-55-44-00-2
 D--------------------------
 G--------------------------
 B--------------------------
 A--------------------------

 


 


 Verse:


 


 

 
 E-22x222x222x222-00---55x555x555x555xx-99x999x999x999xx222/111----
 A-44x444x444x444-44---77x777x777x777xx-77x777x777x777xx999/999----(x2)
 D-44x444x444x444-44---77x777x777x777xx-77x777x777x777xx999/999----
 G-----------------------------------------------------------------
 B-----------------------------------------------------------------
 E-----------------------------------------------------------------

 


 


 Riff beetween Verse 1 and 2


 


 

 
 E-22-00-22-00-2---------22-44-55-44-----55-44-00-2-
 A------------------------------------22------------
 D---------------2222222----------------------------
 G--------------------------------------------------
 B--------------------------------------------------
 E--------------------------------------------------

 


 


 Chorus:


 


 

 
 E-5-------2-------------
 A-7-(x15)-4-(x8)-5------
 D-7-------4------7-(x8)-
 G----------------7------
 B-----------------------
 E-----------------------

 


 


 Riff after first chorus


 


 

 
 E-22-00-22-00-22-0-2b------
 A---------------------(x2)-
 D--------------------------
 G--------------------------
 B--------------------------
 E--------------------------

 


 


 Bridge:


 


 

 
 E-5-----5-----5-------------------
 A-7-555-7-777-7-555-77777777------
 D-7-777-7-999-7-777-99999999-(x2)-
 G---777---999---777-99999999------
 B---------------------------------
 E---------------------------------


Important: The song above is NOT stored on the Chordie server. The original song is hosted at www.xguitar.com. Chordie works as a search engine and provides on-the-fly formatting. Chordie does not index songs against artists'/composers' will. To remove this song please click here.

This song is displayed as text-only. Transposing and tuning is only available for chordpro-songs.
Rate #2 of 2 versions

Login - add to songbook

SHARE PAGE  




You need to log in to post comments