Guitar Tabs, Chords and Lyrics
Major upgrade!! After one year development the new version of Chordie is now online! Please give feedback.


Teenage Alien Nation   American Hi-Fi

 
 -------------------------------------------------------
 -------------------------------------------------------
 -44---------xx----xx-----------------------------------
 -44-44--77--xx-22-xx-22--------------------------------
 -22-44--77--xx-22-xx-22--------------------------------
 ----22--55--xx-00-xx-00--------------------------------x6

 


 


 Verse part 1


 

 
 -------------------------------------------------------
 -------------------------------------------------------
 -44---------xx----xx-----------------------------------
 -44-44--77--xx-22-xx-22--------------------------------
 -22-44--77--xx-22-xx-22--------------------------------
 ----22--55--xx-00-xx-00--------------------------------x4

 


 


 Verse part 2


 

 
 -------------------------------------------------------
 -------------------------------------------------------
 -44---------xx----xx-----------------------------------
 -44-44--77--xx-22-xx-22--------------------------------
 -22-44--77--xx-22-xx-22--------------------------------
 ----22--55--xx-00-xx-00--------------------------------x4

 


 PM_____________________________


 


 Chorus


 

 
 ----------------- -------------------
 ----------------- -------------------
 -4-xx------------ -------------------
 -4-xx-4-0-2------ on third time do ------5------------ at the end
 -2-xx-4-0-2------ ------5------------
 ------2-0-0------ ------3------------

 


 


 then


 

 
 ----------------------
 ----------------------
 --5-5-5-5--7-7-7-7----
 --5-5-5-5--7-7-7-7----
 --3-3-3-3--5-5-5-5----
 ----------------------x2

 


 


 then intro x2


 


 then verse


 


 then chorus


 


 then intro x4


 


 Solo the numbers in()are optional, i leave them out.


 

 
 ---------------------------------------------------------------------------
 (12-12-12-12)--(12)---------------(12-12-12-12)--(12)----------------------
 -14-14-14-14-12-14-----------------14-14-14-14-12-14------------12-12-10---
 -------------------12-12-9-9-9-9-12------------------12-9-9-9-9------------
 ---------------------------------------------------------------------------
 ---------------------------------------------------------------------------
 ---------------------------------------------------------------------------
 (12-12-12-12)--(12)---------------(12-12-12-12)--(12)----------------------
 -14-14-14-14-12-14-----------------14-14-14-14-12-14-----------------------
 -------------------12-12-9-9-9-9-12------------------14-12-12p10/12--------
 ---------------------------------------------------------------------------
 ---------------------------------------------------------------------------

 


 


 Quiet part


 

 
 ----------------
 ----------------
 -4-xx-----------
 -4-xx-4-0-2-----
 -2-xx-4-0-2-----
 ------2-0-0----- Slowly then spead up

 


 


 then chorus


 


 Outro


 

 
 -----------
 -----------

 


 [-44-44-44--]  


 [-44-44-44--]  


 [-22-22-22--]  


 

 
 -----------


Important: The song above is NOT stored on the Chordie server. The original song is hosted at www.xguitar.com. Chordie works as a search engine and provides on-the-fly formatting. Chordie does not index songs against artists'/composers' will. To remove this song please click here.

This song is displayed as text-only. Transposing and tuning is only available for chordpro-songs.
Rate #1 of 2 versions

Login - add to songbook

SHARE PAGE  



You need to log in to post comments