Guitar Tabs, Chords and Lyrics
Major upgrade!! After one year development the new version of Chordie is now online! Please give feedback.


Weeper on the Shore  Amorphis

Amorphis - The Weeper On The Shore
album: Elegy
Tabbed by caedmonn
Please any comments, corrections and completed non-tabbed sections on
Caedmonn@wanadoo.sk
Enjoy this genial song...
All tabbed parts are 95% perfect
tuning one step down - D G C F A D
~ let ring
p pull
h hammer on
* harmonics
() alternative note
\ slide down
/ slide up
PM......... palm mute
riff1 acoustic just play the chords E G C A(B)
 
 |-0---0---0----0-(0)---------------------------------------------------|
 |-0---0---0----0-(0)---------------------------------------------------|
 |-0---0---0----0-(0)---------------------------------------------------|
 |-2---5---10---7-(9)---------------------------------------------------|
 |-2---5---10---7-(9)---------------------------------------------------|
 |-0---3---8----5-(7)---------------------------------------------------|

my favourite interlude- electric guitar
backround riff1 - electric guitar start with downslide
[E] [G] [C] [A] [E] [G] [C] [B] [B]  
 
 |-----|-7-7---8-7h8p7--------------7-7---8-7h8p7-------------|---------|
 |-----|----8---------8----------------8---------8--8--7-8-10-|-12~-----|
 |-----|-----9----------9-7-------------9---------9-----------|-end-----|
 |-----|--------------------10-9-7----------------------------|---------|
 |-12\-|------------------------------------------------------|---------|
 |-12\-|------------------------------------------------------|---------|

again riff1 with lyrics- In the vale...
in backround solo1>
 
 |----------------------------------------------------------------------|
 |-12~---12p10-------------------------------8------8-10-8---8----------|
 |-------------7-9-7-9~--------------------9---9~-9--------9---9~-------|
 |------------------------9p7-----5------9------------------------------|
 |----------------------------5-7---7~----------------------------------|
 |----------------------------------------------------------------------|

PM...
chorus
2 guitars
riff3
 
 |----------------------------------------------------------------------|
 |----------------------------------------------------------------------|
 |-----------------------9-9-7--9-9-9-109-7-----------------------------|
 |--7-7-5--7-7-7-8-7-5---9-9-7--9-9-9-109-7-----------------------------|
 |--7-7-5--7-7-7-8-7-5---7-7-5--7-7-7/8\7-5-----------------------------|
 |--5-5-3--5-5-5/6\5-3--------------------------------------------------|

riff 3a
 
 |----------------------------------------------------------------------|
 |----------------------------------------------------------------------|
 |-----------7-9-7--------------------------------7-9-7-----------------|
 |--9-7-9-10-------10-9-7-9~--10~-12-14~--9-7-9-10------10-9-7-9~-7~-6--|
 |--------------------------------------------------------------------7~|
 |----------------------------------------------------------------------|

again riff1 with lyrics > Oh why are you weepin...
backround solo2> (just harmonics)
 
 |-----0--0---------|
 |---0--------------|
 |-0----------------|
 |-*-*-*--*---------|
 |-7-7-7--5--<fret--|
 |----------position|

Riff4
...
Riff5
 
 |---------------------------------------|
 |---------------------------------------|
 |---------------------------------------|
 |-2-2-2---9-9-9-101010--13-13-13-2-2-2--|
 |-2-2-2---9-9-9-101010--13-13-13-2-2-2--|
 |-0-0-0---7-7-7-8-8-8---11-11-11-0-0-0--|

Riff5a
 
 |--------------------------------------------------|
 |-----8-7-------7--------------------------------7-|
 |-9-------9-7-9---------------------9-7------8-9---|
 |--9--------------9---9-10-9h10p9-7-----10-9-------|
 |---7----------------------------------------------|
 |--------------------------------------------------|

song order>
Riff1 acoustic > 4 times
Riff1 electric + interlude > 2 times
Riff1 acoustic + lyrics > 4 times +solo1
chorus> Riff3 + lyrics > 2 times
Riff 3 + Riff3s > 2 times
Riff1 electric + interlude > 2 times
Riff1 acoustic + lyrics > 4 times +solo2
chorus> Riff3 + Riff3a + lyrics > 4 times
Riff4 + solo 3 ... don't tabbed yet
Riff5 + Riff5a(palm muted) > 4 times
Riff5 + Riff5a(without PM) > 4 times
Riff1 electric + interlude (all 1.5 step higher)> 2 times
end> Riff1 electric + solo4... don't tabbed yet
XXX

Important: The song above is NOT stored on the Chordie server. The original song is hosted at www.xguitar.com. Chordie works as a search engine and provides on-the-fly formatting. Chordie does not index songs against artists'/composers' will. To remove this song please click here.

Text color:
Chord color:
Chord grids: 
Font size:    
Page size: 

A B C E G
Rate #3 of 4 versions

Login - add to songbook

SHARE PAGE  




You need to log in to post comments