Guitar Tabs, Chords and Lyrics
Major upgrade!! After one year development the new version of Chordie is now online! Please give feedback.


Foreign Language   Anberlin

 
 [-----------------------------------------------------------------------------]
 [--------------[fill]----------------[fill]-----------------------------------]
 [7-777777-7-77-7-77-7--4-444444-4-44-4-44-4----------------[fill]-------------]
 [7-777777-7-77-7-77-7--4-444444-4-44-4-44-4--5-555555-5-55-5-55-5--7-777777-7-]
 [5-555555-5-55-5-55-5--2-222222-2-22-2-22-2--5-555555-5-55-5-55-5--7-777777-7-]
 [--------------------------------------------5-555555-5-55-5-55-5--7-777777-7-]

 


 Fill Riff 1 Fill Riff 2


 

 
 [-----------] [---------] [-------------]
 [-----------] [---------] [-10---10..---]
 [----[fill]-] [-7--6--7-] [----7----7..-]
 [-77-7-77-7-] [-7--7--7-] [-------------]
 [-77-7-77-7-] [---------] [-------------]
 [-77-7-77-7-] [---------] [-------------]

 


 


 Solo (Over Main Riff Chords)


 

 
 [---------------------------------------------------]
 [---10----10----10------------------------7---------]
 [-7-----7-----7----11b12b11----/9-7-9-7-9-9b10b9-7~-]
 [---------------------------------------------------]
 [-\\ 3x /-------------------------]
 [---------------------------------------------------]

 


 


 "Speaking foreign language, Nothing I can translate.."


 

 
 [---------------------------------]
 [---------------------------------]
 [---------------------------------]
 [-2-2-2-2-2-2-2-4-5-5-5-5-5-5-5-5-]
 [-2-2-2-2-2-2-2-4-5-5-5-5-5-5-5-5-]
 [-2-2-2-2-2-2-2-4-5-5-5-5-5-5-5-5-]

 


 


 "Where did we go wrong.."


 

 
 [-------] [-------------------------------------------------------------------]
 [-------] [-------------------------------------------------------------------]
 [-------] [-7-7-7-7-7-7-7-7--7-7-7-7-7-7-7-7--4-4-4-4-4-4-4-4-----------------]
 [77-7-7-] [-7-7-7-7-7-7-7-7--7-7-7-7-7-7-7-7--4-4-4-4-4-4-4-4--5-5-5-5-5-5-5-5]
 [77-7-7-] [-5-5-5-5-5-5-5-5--4-4-4-4-4-4-4-4--2-2-2-2-2-2-2-2--5-5-5-5-5-5-5-5]
 [77-7-7-] [----------------------------------------------------5-5-5-5-5-5-5-5]
 [--------------------------------------------------------------------]
 [--------------------------------------------------------------------]
 [-7-7-7-7-7-7-7-7--7-7-7-7-7-7-7-7--4-4-4-4-4-4-4-4------------------]
 [-7-7-7-7-7-7-7-7--7-7-7-7-7-7-7-7--4-4-4-4-4-4-4-4--5-5-5-5-7-7-7-7-]
 [-5-5-5-5-5-5-5-5--4-4-4-4-4-4-4-4--2-2-2-2-2-2-2-2--5-5-5-5-7-7-7-7-]
 [----------------------------------------------------5-5-5-5-7-7-7-7-]


Important: The song above is NOT stored on the Chordie server. The original song is hosted at www.xguitar.com. Chordie works as a search engine and provides on-the-fly formatting. Chordie does not index songs against artists'/composers' will. To remove this song please click here.

This song is displayed as text-only. Transposing and tuning is only available for chordpro-songs.
Rate #2 of 4 versions

Login - add to songbook

SHARE PAGE  



You need to log in to post comments