Guitar Tabs, Chords and Lyrics
Server problems seems to be fixed. Chordie has been experiencing problems with songs disappearing. These issues now seems to be fixed, but still verifying the fix. If you find anything strange, please email admin@chordie.com.


Make Believe  Angra

Band : Angra
Song : Make Believe
>From "Holy Land"
Written by Rafael Bittencourt and Andre Matos
Transcribed by Julien PUTIGNY (jputigny@aol.com or jputigny@club-internet.fr)
Intro : (piano arranged guitar)
Gtr 1:
______________________ ____________________
|1. |2.
 
 |----------------------------|-----2-------2-3-2-----|-------------2---3---|
 |---2---------2---------2----|-3-3-----3-5-------5-3-|-3---0-2-3-5---------|
 |-4---2-----4---2-----4---2--|-----------------------|---------------------|
 |---------2---------2--------|-----------------------|---------------------|
 |----------------------------|-----------------------|---------------------|
 |----------------------------|-----------------------|---------------------|

1st Verse:
Sat beside the meadow Watching weeds agrow ...
 
 |--------------------------0--0-0-0--0-0--0--0-0-0--0-0-|
 |-2--2-2-2--2--2-2--2--2---1--1-1-1--1-1--3--3-3-3--5-5-|
 |-2--2-2-2--2--2-2--2--2---0--0-0-0--0-0--0--0-0-0--0-0-|
 |-2--2-2-2--2--2-2--2--2---2--2-2-2--2-2--4--4-4-4--4-4-|
 |-0--0-0-0--0--0-0--0--0---3--3-3-3--3-3--5--5-5-5--5-5-|
 |-------------------------------------------------------|

Preverse:
I After All
 
 |-7--7-7-7-7--7-7-7-5--5-5-2--2-2-2-2--2-2-2-|------------|
 |-7--7-7-7-7--7-7-7-5--5-5-3--3-3-3-3--3-3-3-|------------|
 |-9--9-9-9-9--9-9-9-7--7-7-4--4-4-4-4--4-4-4-|---Repeat---|
 |-9--9-9-9-9--9-9-9-7--7-7-4--4-4-4-4--4-4-4-|------------|
 |-7--7-7-7-7--7-7-7-5--5-5-2--2-2-2-2--2-2-2-|------------|
 |-7--7-7-7-7--7-7-7-5--5-5-2--2-2-2-2--2-2-2-|------------|

Just a lonely man - a lonely heart
 
 |-7--7-7-7-7--7-7-7-5--5-5-|
 |-7--7-7-7-7--7-7-7-5--5-5-|
 |-9--9-9-9-9--9-9-9-7--7-7-|
 |-9--9-9-9-9--9-9-9-7--7-7-|
 |-7--7-7-7-7--7-7-7-5--5-5-|
 |-7--7-7-7-7--7-7-7-5--5-5-|

2nd verse :
Gtr 1 plays the same as 1st verse but Gtr 2 (electric) plays :
Working on the future Floating on fate ...
 
 |-------------------------------------------|
 |-------------------------------------------|
 |-------------------------------------------|
 |-------------------------------------------|
 |-0-0-0-0-0-0-0-0-0-0-0-3-3-3-3-3-3-5-5-5-5-|
 |-------------------------------------------|

pm.......................................
Chorus :
Make Believe There's no sorrow in your eyes
[F#m] [E]  
 
 |---------------------------------------------------------------------|
 |--------------10----10----10-9--10---X---10----10--10--10--9---9--9--|
 |--------------11----11----11-11-11---X---11----11--11--11--11--9--9--|
 |--------------11----11----11-11-11---X---11----11--11--11--11--9--9--|
 |--------------9-----9-----9--9--9----X---9-----9---9---9---9---7--7--|
 |---------------------------------------------------------------------|

Can't you see We can never get back from the start
 
 |--------------------------------------------------------------------|
 |--------------------------------------------------------------------|
 |------------------------------Repeat--------------------------------|
 |--------------------------------------------------------------------|
 |--------------------------------------------------------------------|
 |--------------------------------------------------------------------|

Minutes waiting Life's been wasted
[D] [Bm]  
 
 |--------------------------------------------|
 |---------7----7-7-7-----------3----3-3-3----|
 |---------7----7-7-7-----------4----4-4-4----|
 |---------7----7-7-7-----------4----4-4-4----|
 |---------5----5-5-5-----------2----2-2-2----|
 |--------------------------------------------|

... Maybe I wanna die some other day
[Gm] [A]  
 
 |-------------3--------------5---------|
 |-------------3--------------5---------|
 |-------------3--------------6---------|
 |-------------5--------------7---------|
 |-------------5--------------7---------|
 |-------------3--------------5---------|

Solo :
Gtr 1: (classical acoustic)
po h h po
 
 |-----------------------------------------------9-10-12~~-----12-10-9------|
 |-14-14-14~~--13-12-10-12-8-7~~----------7-8-10-------------X---------10~~-|
 |------------------------------------7-9-------------------X---------------|
 |----------------------------------7---------------------------------------|
 |--------------------------------------------------------------------------|
 |--------------------------------------------------------------------------|

Gtr 1: (classical acoustic)
po po
 
 |------------12-12~~-12-10--10-9------------------------------------------|
 |-9~-10~-12~---------------------12~~----10~-10~-12~--12-12~-13~-13~-10~~-|
 |-------------------------------------------------------------------------|
 |-------------------------------------------------------------------------|
 |-------------------------------------------------------------------------|
 |-------------------------------------------------------------------------|

|
|Gtr 2: (electric)
| E5 D5 Bm E5 D5 Bm
 
 |-------------------------------------------------------------------------|
 |--------------------------------3~~--------------------------------3~~---|
 |-9~~----------------7~~---------4~~-----9~~-----------------7~~----4~~---|
 |-9~~----------------7~~---------4~~-----9~~-----------------7~~----4~~---|
 |-7~~----------------5~~---------2~~-----7~~-----------------5~~----2~~---|
 |-------------------------------------------------------------------------|

Gtr 1:
h po h po
 
 |-9~-10~-12~-10~-9-10-9-------12-13-15-13-12-13-12------|
 |-----------------------10~~-----------------------13~~-|
 |-------------------------------------------------------|
 |-------------------------------------------------------|
 |-------------------------------------------------------|
 |-------------------------------------------------------|

|
|Gtr 2:
| E5 F#5
 
 |-------------------------------------------------------|
 |-------------------------------------------------------|
 |-9------9----X----9----X----11-----11---X-----11---X---|
 |-9------9----X----9----X----11-----11---X-----11---X---|
 |-7------7----X----7----X----9------9----X-----9----X---|
 |-------------------------------------------------------|

Bridge
Hear the whispers of your hope The answer wasn't told
[Em] [D] [C] [Bm] [A] 
No don't laught seeing me cry The end I've left behind
[Em] [D] [Cm] [C] [B] 
Tablature Explanation :
pm.... : Palm mute
h : Hammer
po : Pulling off

Important: The song above is NOT stored on the Chordie server. The original song is hosted at www.xguitar.com. Chordie works as a search engine and provides on-the-fly formatting. Chordie does not index songs against artists'/composers' will. To remove this song please click here.

Text color:
Chord color:
Chord grids: 
Font size:    
Page size: 

A B Bm C Cm D E Em F#m Gm
Rate #1 of 2 versions

Jango Player

Login - add to songbook

SHARE PAGE  



You need to log in to post comments