Guitar Tabs, Chords and Lyrics
Major upgrade!! After one year development the new version of Chordie is now online! Please give feedback.


Acid Rain  Angra

1ªparte - CORO
[Am]Miseribus [Am]Sanctus! [Am]Pecatoribus [F]Ominus!
[Am]Miseribus [Am]Sanctus! [Am]Pecatoribus [C]Ominus!
[Am]Miseribus S[C]anctus! D[F#]omine Deo Sabbao[C]th! Domine!
Riff1:
[E5] [A5] [D5] [B5]  
 
 e-|-/12-----------------10-------------------------------------------------
 B-|-----12-11~----11-12----10-9~----9-10---8-7~----7h8p7-5-4---------------
 G-|--------------------------------------7-------------------5p4-----------
 D-|--------------------------------------------------------------5p4-------
 A-|------------------------------------------------------------------------
 E-|------------------------------------------------------------------------

[E5] [A5] [C5] [D5] [B5]  
 
 e-|-/12-----------------10---------------7h8-7---7-------------------------
 B-|-----12-11~----11-12----10-9~----9-10-------8---7h8p7-------------------
 G-|------------------------------------------------------9-7---------------
 D-|----------------------------------------------------------10-9-7--------
 A-|-----------------------------------------------------------------10-9-7-
 E-|------------------------------------------------------------------------

Intro: (E D D/E G F# F#/G E D D/E C)2X --> ESTAS BARRAS SÃO DE UM SLIDE
Paradinha: (Em D C Bb)
[Em] When the world had a tragic fate
We were draining the poisoned sea
[Em] Though the scenes were indeed too sad
Only prayers were taking lead
[Am]Oh! Just some of us sur[E]vi[D]ve[D/E]d[G] [F#] [F#/G]
[Am]At least a discent woman and a[E] m[D]an[D/E] [G] [F#] [F#/G]
[F#m]Wide awake! Am I al[Em]one [G]in this place[D]
[F#m]Someone hear me ? my only h[C]ope![F]
[Am]The Acid [G]Rain is burning
[F]Right in[C]to your [G]eyes
[Am]Again your d[G]reams may loose the [F]glow[C] [G]
[Am]Allow the s[G]orrow of your [F]thougths to meet sunris[C]e[G]
[Am]And shall the hopef[G]ull words
Bring [F]love inside your [C]heart[G]
[Bb]The Acid R[F]ain is burning your e[C]yes!
Solo1: (C)
[(C] [F] [A] [C)]  
[(E] [B] [C] [C] [E] [B] [C] [F)]  
[Am]Miseribus [Am]Sanctus! [Am]Pecatoribus [F]Ominus!
Solo2: (A G G/A A G G/A A G G/A F)2x
[(E] [E] [E] [G] [C] [E] [E] [E] [G] [C)]  
[(E](E [B]Eb[A] D[E] D[E]b [B]C [A)]B E)2x
[(E] [F#] [F)]  
[Em]So the world knew a tragig fate
We were draining the deadly sea
[Em]And the scenes were indeed too sad
Only prayers were taking lead
[Am]Oh! Just some of us sur[E]vi[D]ve[D/E]d[G] [F#] [F#/G]
[Am]At least a discent woman and a[E] m[D]an[D/E] [G] [F#] [F#/G]
[F#m]Wide awake! Am I al[Em]one [G]in this place[D]
[F#m]Someone hear me ? my only h[C]op[F]e![Ab] [E]
[Am]The Acid [G]Rain is burning
[F]Right in[C]to your [G]eyes
[Am]Again your d[G]reams may loose the [F]glow[C] [G]
[Am]Allow the s[G]orrow of your [F]thougths to meet sunris[C]e[G]
[Am]And shall the hopef[G]ull words
Bring [F]love inside your [C]heart[G]
[Ab]The Acid R[Bb]ain is burning your e[Cm]yes! Miseribus[Cm]
Zurcfe :)


Important: The song above is NOT stored on the Chordie server. The original song is hosted at www.xguitar.com. Chordie works as a search engine and provides on-the-fly formatting. Chordie does not index songs against artists'/composers' will. To remove this song please click here.

Text color:
Chord color:
Chord grids: 
Font size:    
Page size: 

A A5 Ab Am B B5 Bb C C5 Cm D D/E D5 E E5 Em F F# F#/G F#m G
Rate #1 of 3 versions

Jango Player

Login - add to songbook

SHARE PAGE  




You need to log in to post comments