Guitar Tabs, Chords and Lyrics
Server problems seems to be fixed. Chordie has been experiencing problems with songs disappearing. These issues now seems to be fixed, but still verifying the fix. If you find anything strange, please email admin@chordie.com.


Nova Era  Angra

Angra - Nova Era
Submitted By: stratovarius5000
EMail: stratovarius5000@yahoo.com
Intro I
[D] [A#A] [G] [A] [A#] [A] [D] [G] [A] [A#] [A]  
 
 | |---------------------------------|------------------------------| |
 |*|---------------------------------|------------------------------|*|
 | |-7-------------------------7-----|------------------------------| |
 | |-7-------8-7-5-7-8---7-----7-----|---5-7-8---7------------------| |
 |*|-5-------8-7-5-7-8---7-----5-----|---5-7-8---7------------------|*|
 | |---------6-5-3-5-6---5-----------|---3-5-6---5------------------| |

[D] [A#A] [G] [A] [A#] [A] [D] [A#A] [G] [A] [A#] [A] [C#] [D]  
 
 | |---------------------------------|------------------------------| |
 |*|---------------------------------|------------------------------|*|
 | |-7-------------------------7-----|-----------------------6--7---| |
 | |-7-------8-7-5-7-8---7-----7-----|---------8-7-5-7-8--7--6--7---| |
 |*|-5-------8-7-5-7-8---7-----5-----|---------8-7-5-7-8--7--4--5---|*|
 | |---------6-5-3-5-6---5-----------|---3--5--6-5-3-5-6--5---------| |
 --------------------

Intro II
[D] [C#] [D] [C]  
 
 | |---------------------------------|------------------------------| |
 |*|---------------------------------|---14--------14----14-15-17---|*|
 | |--14--------14-----14-15---------|------15--------17------------| |
 | |-----15---------17-------17------|---------17-------------------| |
 |*|--------17-----------------------|------------------------------|*|
 | |---------------------------------|------------------------------| |

[D] [C#] [G] [D]  
 
 | |---------------------------| | |--------------------------------| |
 |*|---------------------------| | |--------------------------------|*|
 | |--14--------14-----14-15---| | |15--15-14-12-15-14------------15| | 2X
 | |-----15---------17-------17| | |------------------------12-14---| |This
 |*|--------17-----------------| | |----------------------14--------|*|Part
 | |---------------------------| | |--------------------------------| |

[A#] [A]  
 
 | |--------------------------------|
 |*|--------------------------------|
 | |--------12-13b-p11--14b-p12-14--|
 | |--13-15-------------------------|
 |*|--------------------------------|
 | |--------------------------------|
 | |--------------------------------|--------------------------------|
 |*|--------------------------------|--------------------------------|
 | |--------------------------------|--------------------------------|
 | |--8--5-7-8--5----8--5-7-8--5----|--------------------------------|
 |*|--------------------------------|--8--5-7-8--5----8--5-7-8--5----|
 | |--------------------------------|--------------------------------|
 | |------------------------------------|------------------------|
 |*|------------------------------------|------------------------|
 | |------------------------------------|------------------------|
 | |----------------------------------5-|---------------9/7-5/7--|
 |*|------10--7--9--5--7--------5-7-8---|-----10--7--9--7/5-3/5--|
 | |-0-0------------------5-7-8---------|-0-0--------------------|
 | |-----------------------------------|--------------------------|
 |*|-----------------------------------|--------------------------|
 | |-----------------------------------|--------------------------|
 | |----------------------5------------|---------------9/7-5/7----|
 |*|------10--7--9--5--7----8-7-5------|-----10--7--9--7/5-3/5----|
 | |-0-0--------------------------8-7-5|--0-0---------------------|

1 parte: F A G A A# A D G A A# C# D
[F] [A] [G] [A] [A#] [A] [D] [E] [F] [A] [G] [A] [A#] [A] [C#] [E] 
2 parte: são os mesmos acordes da 1ª estrofe abaixo.
[D]Some[D/C#]how I kn[D]ow
That[C] things are gonna[D] change
New [C]boundaries on the [G]way
Like never we[D]re before
[G]Find a meaning to your [D]life
[G]Healing whispers of the [D]angels
Bring the [A#]sunrise [A]again
[F]New day [F/E]shines, fallen [A#]angels will [C]ar[D]ise
R C A# C F C
E Nova Era brings the ashes back to life
[F]R [F]All over [F/E]now, all the gre[A#]at and aw[C]ful li[D]es
à A# F D#
O Angels will arise
Back to[D] life!
Introdução 2ªparte
[D]Fresh [D/D#]winds of h[D]ope
Has [C]taken us ah[D]ead
Fo[C]rever is a [G]place
You have to keep in [D]mind
No [G]way to limit our [D]goals
We'll fi[G]nd a reason to b[D]elieve
Facing N[A#]ova [A]Era
(refrão)
SOLO
Oh! Come on! Arise!
SOLO 2
[G]Find a meaning to your [D]life
[G]No way to limit our [D]goals
[G]Healing whispers of the [D]angels
Bring the [A#]sunrise [A]again!
[F]New day [F/E]shines, fallen [A#]angels will [C]ar[D]ise
Nov[C]a [A#]Era brings [C]the [F]ashes back to [D#]life[C]
[G]All over [G/F#]now, sores in [C]pain and aw[D]ful [E]lies
[C]Angel[D]s [G]lead you th[F]rough paradi[E]se
Nova [C]Era is a [D]passage to your [E]mind
And [C]forever you may [B]find a better[E] time
Nova [C]Era bring the [D]angels back to [G]life... [E]Life!
Zurcfe :)


Important: The song above is NOT stored on the Chordie server. The original song is hosted at www.xguitar.com. Chordie works as a search engine and provides on-the-fly formatting. Chordie does not index songs against artists'/composers' will. To remove this song please click here.

Text color:
Chord color:
Chord grids: 
Font size:    
Page size: 

A A# B C C# D D# D/C# E F F/E G G/F#
Rate #1 of 6 versions

Jango Player

Login - add to songbook

SHARE PAGE  



You need to log in to post comments