Guitar Tabs, Chords and Lyrics
Update 25:10. 13:00. Site is back up running again. Songbooks are recovered. Woring on getting search back up..


Rebirth  Angra

Angra - Rebirth
Submitted By: Viol„o Rulez (Guilherme Nassar Viola)
EMail: manotruta@hotmail.com
[Am] [Am7/G] [Em] [F] [G] [Am]  
 
 e|--------0-----------------------------------------------------0--------| R
 B|------1---3--------------1-0--------------------------------1-----1----|\ E
 G|----2------------2-----0-------------------2-0------------2-----2---2--| P
 D|---------------0-----2------------2------3----------5---2--------------| E
 A|--0-----------------------------2------3----------5---0----------------|/ T
 E|-------------2-----3----------0------1----------3----------------------| E

[Dm] [C] [G/B]  
 
 e|-------1-----0----------0------1---0-----------------2-----|
 B|-----3-----3-----3--------3--------------3---1------2------|
 G|---2-----2-----2---2--------2----2---0----0---0---0--------| fim da primeira
 D|-0---------0---------0-----------------2---2---------------| parte
 A|-----------------------------------3---3--------2----------|
 E|-----------------------------------------------------------|

2nd part (play twice):
(Voice begins)
A7/9 (?) Dm7
 
 e|-------3-0---3------3-0---3------------5-----------------5---------|
 B|-----1-----1--1----1----1---1-------6-------6----------6------6----|
 G|---4--------------4---------------5-------5---5------5------5---5--|
 D|--------------------------------7------------------7---------------|
 A|-0--------------0-------------5------------------------------------|
 E|---------------------------------------8---------7-------5---------|

G/9(?)
 
 e|---------3----------------3-----------------0----------------0-------|
 B|-------0---0---0--------0---0---0---------3------3---------3-----3---|
 G|-----2-------2--------2-------2---------0------0---0-----1-----1---1-|
 D|---0----------------0-----------------2----------------2-------------|
 A|------------------------------------3-------2----------------2-------|
 E|-3----------------3----------------------------------4---------------|
 e|-------3-0---3---------3-0----3-----------0------------0-------------1-0-|
 B|-----1-----1---1-----1------1---1-------7------7------7-----7------1-----|
 G|---4----------------4-----------------5------5---5---5----5---5---2------|
 D|------------------------------------7---------------7--------------------|
 A|-0----------------0---------------5----------------5---------------------|
 E|------------------------------------------8------------5--------1--------|
 e|---1---------1-0----1-----------0-----------------0---------------0-------|
 B|-1---1-----1------1---1-----1-0---1---1------(10)---1---1----(10)---1---1-|
 G|---------2----------------2---------4------2----------4-----2---------4---|
 D|--------------------------------------------------------------------------|
 A|------------------------0---------------0-----------------0---------------|
 E|-------1-------3----------------------------------------------------------|

(play 2nd part again)
 
 e|--------------------------------------------------------------------| R
 B|-----1---1---0-------3---3---1-------1---1---0-------1---1---2------| E
 G|---2---2---2---2---2---2---2---2---2---2---2---2---2---2---2---2----| P
 D|--------------------------------------------------------------------| E
 A|-0--------------0----------------0---------------0----------------0-| T
 E|--------------------------------------------------------------------| E

(intro end)
(check intro "voice begins")
[Am]Cooling breeze from a su[Dm]mmer day
[G]Hearing echoes from your [C]he[G/B]art
[Am]Learning how to recompose th[D]e [D4]words
[F]Let time just [Am]fly
Joyfull sea-gulls roaming on the shore
Not a single note will sound
Raise my head after I dry my face
Let time just fly
[Am]Recall[Dm]ing, retreati[Am]ng
Returni[Dm]ng, retreavi[Am]ng
A small tal[Dm]k your mis[Am]sing
(intro)
More clever[Dm] but older now[F] [G]
(begins instrumental)
A[A] leader, a l[A]earner
A[A/G] lawful b[E]eginer
A[A] lodger of l[A]unacy
S[D]o lucid i[G]n a jungle
A[C] helper, a[E] sinner
A[F] scarecroow's [G]agonyzing s[A]mile
O[F]h! Minutes go [F#]round and round
Inside my [C#]head
O[D]h! My chest will [D#]now explode
Falling [B]into pieces 2X
R[E]ain breaks on the [A]ground-b[(C#]lood[B)]![E] [F] [E] [F]
[C#]One [B]mi[C#]nute [C#]for[B]ev[C#]er[E] [F] [E] [F]
[C#]A [B]sin[C#]ner [C#]reg[B]ret[C#]ing[E] [F] [E] [F]
M[A]y vulgar misery [G]ends[F] [G] [A] [G]
[F]Ride the winds [G]of a [A]brand new day[G]
[F]High where mountain[G]'s s[A]tand[G]
[F]Found my hope [E]and [D]pride again
2X
Re[C]birth of a[D] m[E]an [(A](I [G/F#]N T R[G] O[E] D[F] U[G] «[A)] √ O)
3X
SOLO BASE: 1st part: (B G F# E G A D B) B G F# E G F# G
2X
2nd part: (A G/F# G E F G A)
3rd part: D C F E D C G A
([G]And I) [F]ride the winds [G]of a [A]brand new day[G]
[F]High where mountain[G]'s s[A]tand[G]
[F]Found my hope [E]and [D]pride again
R[C]ebirth of [D]a [E]man (intro end) Time to fly...

Important: The song above is NOT stored on the Chordie server. The original song is hosted at www.xguitar.com. Chordie works as a search engine and provides on-the-fly formatting. Chordie does not index songs against artists'/composers' will. To remove this song please click here.

Text color:
Chord color:
Chord grids: 
Font size:    
Page size: 

A A/G Am Am7/G B C C# D D# D4 Dm E Em F F# G G/B G/F#
Rate #3 of 6 versions

Jango Player

Login - add to songbook

SHARE PAGE  



You need to log in to post comments