Guitar Tabs, Chords and Lyrics
Major upgrade!! After one year development the new version of Chordie is now online! Please give feedback.


Cadillac Rock Box   Anthrax

 
 eb|----------------------------------|
 Bb|----------------------------------|
 Gb|--------------------------7-------|
 Db|-4-4-----4-6p4----7-7-------9p7---|
 Ab|-2-2--/6-------6--5-5--/9-------9-|
 Eb|----------------------------------|
 eb|--------------------|
 Bb|--------------------|
 Gb|--------------------|
 Db|-4-4-2-4--2-4-4-2-4-|
 Ab|-2-2-0-2--0-2-2-0-2-|
 Eb|--------------------|

 


 


 Final time:


 

 
 eb|-----------------|
 Bb|-----------------|
 Gb|-----------------|
 Db|-4-4-2-4--2-4--2-|
 Ab|-2-2-0-2--0-2--0-|
 Eb|-----------------|

 


 


 Guitar fill during intro:


 

 
 eb|---------------------|
 Bb|---------------------|
 Gb|-4----4/7-7----9\4-4-|
 Db|-4----4/7-7----9\4-4-|
 Ab|---------------------|
 Eb|---------------------|
 eb|--------------------------------|
 Bb|-----------------------------12-|
 Gb|-4----4/7-7----9\4-4----/14--h.-|
 Db|-4----4/7-7----9\4-4----/14-----|
 Ab|--------------------------------|
 Eb|--------------------------------|

 


 


 Riff 2


 

 
 eb|--------------------------------|
 Bb|--------------------------------|
 Gb|--------------------------------|
 Db|--------------------------------|
 Ab|-2-2-2-0-2-2-0-2--2-2-0-2-2-1-0-|
 Eb|--------------------------------|

 


 * * * * * * * * * * * * * * *


 "It feels so good..."


 

 
 eb|------------------------------|
 Bb|------------------------------|
 Gb|------------------------------|
 Db|------------------------------|
 Ab|-2-2-0-2-2-0-2--2-2-0-2-2-1-0-|
 Eb|------------------------------|

 


 * * * * * * * * * * * * * *


 "Ass bet broke..."


 

 
 eb|--------------------------------|
 Bb|--------------------------------|
 Gb|--------------------------------|
 Db|--------------------------------|
 Ab|-2-2-2-0-2-2-0-2--2-2-0-2-2-1-0-|
 Eb|--------------------------------|

 


 * * * * * * * * * * * * * * *


 "Yeah so good..."


 

 
 eb|--------------------------------|
 Bb|--------------------------------|
 Gb|--------------------------------|
 Db|------------------------4-4-3-2-|
 Ab|-2-2-2-0-2-2-0-2--2-2-0-2-2-1-0-|
 Eb|--------------------------------|

 


 * * * * * * * * * * *


 "I can testify..."


 


 Riff 3 x4


 

 
 eb|--------------------------------|
 Bb|--------------------------------|
 Gb|--------------------------------|
 Db|-4-4-4-2-4-4-2-4--4-4-2-4-4-3-2-|
 Ab|-2-2-2-0-2-2-0-2--2-2-0-2-2-1-0-|
 Eb|--------------------------------|

 


 "I can't fake an..."


 

 
 eb|-------------------|
 Bb|--------------3----|
 Gb|--------------2----|
 Db|--------------0----|
 Ab|-5----7--2----0----|
 Eb|-3----5--0---------|

 


 "Break down..."


 


 Play Riff 1 "Pick'em up, set'em up..."


 


 Guitar fill during Riff 1


 

 
 eb|-------|
 Bb|-------|

 


 Gb|-/16~~-|


 

 
 Db|-------|
 Ab|-------|
 Eb|-------|

 


 


 Play Riff 2 "I am so alive..."


 Play Riff 3 "I can't fake an..."


 Play Riff 1 "Pick'em up, set'em up..."


 


 Guitar fill during Riff 1


 

 
 eb|-------|
 Bb|-------|

 


 Gb|-/16~~-|


 

 
 Db|-------|
 Ab|-------|
 Eb|-------|

 


 


 Riff 4 (Solo Rhythm)


 x2


 

 
 eb|-----------------|
 Bb|-----------------|
 Gb|-----------------|
 Db|-4-4--------4-4--|
 Ab|-2-2--------2-2--|
 Eb|-----------------|
 eb|------------------------------|
 Bb|------------------------------|
 Gb|------------------------------|
 Db|-0-0-0-0-0-0-0--2-2-2-2-2-2-2-| ---|
 Ab|-2-2-2-2-2-2-2--2-2-2-2-2-2-2-| |
 Eb|------------------------------| |

 


 |--> Play 2x


 

 
 eb|------------------------------| |
 Bb|------------------------------| |
 Gb|------------------------------| |
 Db|-3-3-3-3-3-3-3--0-0-0-0-0-0-0-| ---|
 Ab|-2-2-2-2-2-2-2--2-2-2-2-2-2-2-|
 Eb|------------------------------|

 


 


 x2


 

 
 eb|-------------------|
 Bb|--------------3----|
 Gb|--------------2----|
 Db|--------------0----|
 Ab|-5----7--2----0----|
 Eb|-3----5--0---------|

 


 


 Solo


 

 
 eb|----------7----------7----------7----------7----------7------|
 Bb|----------7----------7----------7----------7----------7------|
 Db|-------------------------------------------------------------|
 Ab|-------------------------------------------------------------|
 Eb|-------------------------------------------------------------|

 


 x2


 

 
 eb|-7--------7--------7--------7--------|
 Bb|---10p7-----10p7-----10p7-----10p7---|
 Gb|--------9--------9--------9--------9-|
 Db|-------------------------------------|
 Ab|-------------------------------------|
 Eb|-------------------------------------|
 eb|-------------------------------------------------|
 Bb|-------------------------------------------------|
 Gb|-9h10h11-9h10h11-9h10h11-9h10h11-9h10h11-9h10h11-|
 Db|-------------------------------------------------|
 Ab|-------------------------------------------------|
 Eb|-------------------------------------------------|
 eb|----------------------------------------------|
 Bb|----------------------------------------------|
 Gb|-9h10h11-9h10h11-9h10h11-9h10h11-9h10h11-9h10-|
 Db|----------------------------------------------|
 Ab|----------------------------------------------|
 Eb|----------------------------------------------|
 eb|--------------------------------------------------|
 Bb|-7h9h10-7h9h10-7h9h10-7h9h10-7h9h10-7h9h10-7h9h10-|
 Gb|--------------------------------------------------|
 Db|--------------------------------------------------|
 Ab|--------------------------------------------------|
 Eb|--------------------------------------------------|
 eb|-7h9h10p9p7-9p7-----------------|
 Bb|----------------10-9-x-10b12r10-|
 Gb|--------------------------------|
 Db|--------------------------------|
 Ab|--------------------------------|
 Eb|--------------------------------|
 eb|----------------------------------------|
 Gb|----------------------------------------|
 Db|----------------------------------------|
 Ab|----------------------------------------|
 Eb|----------------------------------------|
 eb|-------------------------------------|
 Bb|----10-----------[13]15~----10h13p10-|
 Gb|-11----11b14r11----------------------|
 Db|-------------------------------------|
 Ab|-------------------------------------|
 Eb|-------------------------------------|
 eb|-14b15r14-15b17--15b17~-15b17~-|
 Bb|-------------------------------|
 Gb|-------------------------------|
 Db|-------------------------------|
 Ab|-------------------------------|
 Eb|-------------------------------|
 eb|-17b19r17--[18]19r18-[18]19r18-[18]19r18--[18]19r18-|
 Bb|----------------------------------------------------|
 Gb|----------------------------------------------------|
 Db|----------------------------------------------------|
 Ab|----------------------------------------------------|
 Eb|----------------------------------------------------|
 eb|-19b22----(22)r19\---------------------------------|
 Bb|--------------------17b19r17-15-----17b19r17-15----|
 Gb|--------------------------------16--------------16-|
 Db|---------------------------------------------------|
 Ab|---------------------------------------------------|
 Eb|---------------------------------------------------|
 eb|-------------------------------------------|
 Bb|-17b19r17-15------17b19r17-15--------------|
 Gb|-------------16~--------------16~----(16)\-|
 Db|-------------------------------------------|
 Ab|-------------------------------------------|
 Eb|-------------------------------------------|
 eb|-----------17----------------17-------|
 Bb|-----15----------15----15----------15-|
 Gb|-/14----14----14----14----14----14----|
 Db|--------------------------------------|
 Ab|--------------------------------------|
 Eb|--------------------------------------|
 eb|-17-17-17[18]-[17]18-[17]19-[17]19-[17]19b20~~-|
 Bb|-----------------------------------------------|
 Gb|-----------------------------------------------|
 Db|-----------------------------------------------|
 Ab|-----------------------------------------------|
 Eb|-----------------------------------------------|

 


 


 End Solo


 


 Play Riff 1 "Pick'em up, set'em up..."


 


 Guitar fill during Riff 1


 

 
 eb|-------|
 Bb|-------|

 


 Gb|-/16~~-|


 

 
 Db|-------|
 Ab|-------|
 Eb|-------|

 


 


 Ending:


 

 
 eb|----------------------------------|
 Bb|----------------------------------|
 Gb|--------------------------7-------|
 Db|-4-4-----4-6p4----7-7-------9p7---|
 Ab|-2-2--/6-------6--5-5--/9-------9-|
 Eb|----------------------------------|
 eb|---------------------------------------------|
 Bb|---------------------------------------------|
 Gb|---------------------------------------------|
 Db|-4-4-2-4--2-4--2----3----4-4-4-4-----4----4\-|
 Ab|-2-2-0-2--0-2--0----1----2-2-2-2-...-2----2\-|
 Eb|---------------------------------------------|

 


 "Rock, rock, box!"


 


 Ending solo


 

 
 eb|-------------------------------------|
 Bb|-------------------------------------|
 Gb|-------------------------------------|
 Db|-------------------------------------|
 Ab|-------------------------------------|
 Eb|-------------------------------------|
 eb|-------------------------------------|
 Bb|-------------------------------------|
 Gb|-------------------------------------|
 Db|-------------------------------------|
 Ab|-------------------------------------|
 Eb|-------------------------------------|


Important: The song above is NOT stored on the Chordie server. The original song is hosted at www.xguitar.com. Chordie works as a search engine and provides on-the-fly formatting. Chordie does not index songs against artists'/composers' will. To remove this song please click here.

This song is displayed as text-only. Transposing and tuning is only available for chordpro-songs.
Rate #2 of 4 versions

Login - add to songbook

SHARE PAGE  




You need to log in to post comments