Guitar Tabs, Chords and Lyrics
Major upgrade!! After one year development the new version of Chordie is now online! Please give feedback.


The First Deadly Sin   Arch Enemy

 
 ]------------------------------------------------
 ]------------------------------------------------
 ]---------7---------7---------7------------------
 ]-0-0-0-0-6-0-0-0-0-6-0-0-0-0-6--3-1-0-3-1-0-3-1- (2x)
 ]-0-0-0-0-5-0-0-0-0-5-0-0-0-0-5--3-1-0-3-1-0-3-1-
 ]-0-0-0-0---0-0-0-0---0-0-0-0----3-1-0-3-1-0-3-1-

 


 PM. . . . . . . . . . . .


 

 
 ]--------------------------------------------------------
 ]--------------------------------------------------------
 ]----------7-----------7------------7--------------------
 ]----------6-----------6------------6--3-1-0-3-1-0-3-1--- (2x)
 ]----------5-----------5------------5--3-1-0-3-1-0-3-1---
 ]-000000000--0000000000--00000000000---3-1-0-3-1-0-3-1---

 


 PM......... .......... ...........


 (1x)


 

 
 ]-------------||------------------------------|
 ]-------------||------------------------------|
 ]-------------||------------------------------|
 ]-------------||------------------------------| (8x)
 ]-----5h6-----||------5h6------5h4-------5h6--|
 ]-0"----------||-0"--------0"--------0"-------|

 


 PM. . . .


 

 
 ]--------------------------------------------
 ]--------------------------------------------
 ]--------------------------------------------

 


 [)----444444444444444444444444444444444444444-]PM .......................................


 


 (1x)


 

 
 ]-------------||------------------------------|
 ]-------------||------------------------------|
 ]-------------||------------------------------|
 ]-------------||------------------------------| (3x)
 ]-----5h6-----||------5h6------5h4-------5h6--|
 ]-0"----------||-0"--------0"--------0"-------|

 


 PM. . . .


 


 

 
 ]--------------------------------------------
 ]--------------------------------------------
 ]--------------------------------------------

 


 [)----444444444444444444444444444444444444444-]PM .......................................


 


 

 
 ]------------------------------------------------
 ]------------------------------------------------
 ]---------7---------7---------7------------------
 ]-0-0-0-0-6-0-0-0-0-6-0-0-0-0-6--3-1-0-3-1-0-3-1- (2x)
 ]-0-0-0-0-5-0-0-0-0-5-0-0-0-0-5--3-1-0-3-1-0-3-1-
 ]-0-0-0-0---0-0-0-0---0-0-0-0----3-1-0-3-1-0-3-1-

 


 PM. . . . . . . . . . . .


 


 

 
 ]--------------------------------------------------------
 ]--------------------------------------------------------
 ]----------7-----------7------------7--------------------
 ]----------6-----------6------------6--3-1-0-3-1-0-3-1--- (2x)
 ]----------5-----------5------------5--3-1-0-3-1-0-3-1---
 ]-000000000--0000000000--00000000000---3-1-0-3-1-0-3-1---

 


 PM......... .......... ...........


 


 (1x)


 

 
 ]-------------||------------------------------|
 ]-------------||------------------------------|
 ]-------------||------------------------------|
 ]-------------||------------------------------| (4x)
 ]-----5h6-----||------5h6------5h4-------5h6--|
 ]-0"----------||-0"--------0"--------0"-------|

 


 PM. . . .


 


 

 
 ]--------------------------------------------
 ]--------------------------------------------
 ]--------------------------------------------

 


 [)----444444444444444444444444444444444444444-]PM .......................................


 


 


 (1x)


 

 
 ]-------------||------------------------------|
 ]-------------||------------------------------|
 ]-------------||------------------------------|
 ]-------------||------------------------------| (2x)
 ]-----5h6-----||------5h6------5h4-------5h6--|
 ]-0"----------||-0"--------0"--------0"-------|

 


 PM. . . .


 


 

 
 ]--------------------------------------------
 ]--------------------------------------------
 ]--------------------------------------------

 


 [)----444444444444444444444444444444444444444-]PM .......................................


 


 

 
 ]------------------------------------------------
 ]------------------------------------------------
 ]---------7---------7---------7------------------
 ]-0-0-0-0-6-0-0-0-0-6-0-0-0-0-6--3-1-0-3-1-0-3-1- (2x)
 ]-0-0-0-0-5-0-0-0-0-5-0-0-0-0-5--3-1-0-3-1-0-3-1-
 ]-0-0-0-0---0-0-0-0---0-0-0-0----3-1-0-3-1-0-3-1-

 


 PM. . . . . . . . . . . .


 

 
 ]--------------------------------------------------------
 ]--------------------------------------------------------
 ]----------7-----------7------------7--------------------
 ]----------6-----------6------------6--3-1-0-3-1-0-3-1--- (2x)
 ]----------5-----------5------------5--3-1-0-3-1-0-3-1---
 ]-000000000--0000000000--00000000000---3-1-0-3-1-0-3-1---

 


 PM......... .......... ...........


 


 

 
 ]--------------------------------------------------------
 ]--------------------------------------------------------
 ]--------------------------------------------------------
 ]-------------------------------------------------------- (6x)
 ]----------10----12---8---10-----7--8-------5---7----3-5-
 ]-00000000----00----0---0----000---0--00000--000-0000-0--

 


 PM........ .. . . ... . ..... ... .... .


 Sorry about the solo it was too fast to tab.


 


 

 
 ]----------------------------------------------
 ]----------------------------------------------
 ]----------------------------------------------
 ]-0-0-2-0-0-3-0-4-4-0-4-6-5-------------------- (4x)
 ]-0-0-2-0-0-3-0-4-4-0-4-6-5--------------------
 ]-0-0-2-0-0-3-0-4-4-0--------------------------

 


 PM. . . . .


 


 (1x)


 

 
 ]-------------||------------------------------|
 ]-------------||------------------------------|
 ]-------------||------------------------------|
 ]-------------||------------------------------| (8x)
 ]-----5h6-----||------5h6------5h4-------5h6--|
 ]-0"----------||-0"--------0"--------0"-------|

 


 PM. . . .


 


 

 
 ]--------------------------------------------
 ]--------------------------------------------
 ]--------------------------------------------

 


 [)----444444444444444444444444444444444444444-]PM .......................................


 


 


 (1x)


 

 
 ]-------------||------------------------------|
 ]-------------||------------------------------|
 ]-------------||------------------------------|
 ]-------------||------------------------------| (2x)
 ]-----5h6-----||------5h6------5h4-------5h6--|
 ]-0"----------||-0"--------0"--------0"-------|

 


 PM. . . .


 


 

 
 ]--------------------------------------------
 ]--------------------------------------------
 ]--------------------------------------------

 


 [)----444444444444444444444444444444444444444-]PM .......................................


 


 


 

 
 ]------------------------------------------------
 ]------------------------------------------------
 ]---------7---------7---------7------------------
 ]-0-0-0-0-6-0-0-0-0-6-0-0-0-0-6--3-1-0-3-1-0-3-1- (2x)
 ]-0-0-0-0-5-0-0-0-0-5-0-0-0-0-5--3-1-0-3-1-0-3-1-
 ]-0-0-0-0---0-0-0-0---0-0-0-0----3-1-0-3-1-0-3-1-

 


 PM. . . . . . . . . . . .


 


 

 
 ]--------------------------------------------------------
 ]--------------------------------------------------------
 ]----------7-----------7------------7--------------------
 ]----------6-----------6------------6--3-1-0-3-1-0-3-1--- (2x)
 ]----------5-----------5------------5--3-1-0-3-1-0-3-1---
 ]-000000000--0000000000--00000000000---3-1-0-3-1-0-3-1---

 


 PM......... .......... ...........


 


 

 
 ]--------------------------
 ]--------------------------
 ]--------------------------
 ]-0-0-0-0-0-x--------------
 ]-0-0-0-0-0-x--------------
 ]-0-0-0-0-0-x--------------


Important: The song above is NOT stored on the Chordie server. The original song is hosted at www.xguitar.com. Chordie works as a search engine and provides on-the-fly formatting. Chordie does not index songs against artists'/composers' will. To remove this song please click here.

This song is displayed as text-only. Transposing and tuning is only available for chordpro-songs.
Rate #1 of 1 versions

Login - add to songbook

SHARE PAGE  




You need to log in to post comments