Guitar Tabs, Chords and Lyrics
Major upgrade!! After one year development the new version of Chordie is now online! Please give feedback.


All Warm   Armor for Sleep

 
 E--------------------------------
 B--------------------------------
 G7-7-7-7-7-7-99-66-6-6-6-6-6-66-6
 D7-7-7-7-7-7-77-77-7-7-7-7-7-77-7
 A5-5-5-5-5-5-55-55-5-5-5-5-5-55-5
 D-------------------------------- x4

 


 counts: 1 2 3 4 1 2 3& &1 2 3 4 1 2 3& &


 


 guitar two:


 

 
 E--------------------------------
 B--------------------------------
 G--------------------------------

 


 [D99999999999999995555555555555555]  


 [A99999999999999995555555555555555]D99999999999999995555555555555555 x4


 counts: 1 2 3 4 1 2 3 4 1 2 3 4 1 2 3 4


 


 PRE-CHORUS:


 guitar one:


 

 
 E----------------
 B----------------
 G6-6-6-6-6-6-6-6-
 D7-7-7-7-7-7-7-7-
 A5-5-5-5-5-5-5-5-
 D---------------- x1

 


 [1] [2] [3] [4] [1] [2] [3] [4]  


 CHORUS:


 


 both guitars, unison


 


 

 
 E--------------------------------
 B--------------------------------
 G--------------------------------
 D9-9-9999-9--99995-5-5554-4--4444
 A9-9-9999-9--99995-5-5555-5--5555
 D9-9-9999-9--99995-5-5555-5--5555 x4

 


 


 VERSE 2: same as verse 1


 CHORUS:


 


 BRIDGE:


 

 
 E----------------------------------------
 B----------------------------------------
 G----------------------------------------
 D555555550---45-0----45409999999977777777
 A555555550---45-0----45409999999977777777
 D555555550---45-0----45409999999977777777 x2

 


 end with:[1] [2] [3] [4] [1] [2] [3] [4] [1] [2] [3] [4] [1] [2] [3] [4] [1] [2] [3] [4]


 

 
 E----------------
 B----------------
 G----------------

 


 [D5555555544444444]  


 [A5555555555555555]  


 CHORUS:[D5555555555555555]


 VERSE: play x2 rather than 4


 


 THATS IT!! ENJOY. listen to the song if you have any problemsband: Armor For Sleep


 song: all warm


 tabbed by: kyle ebersole


 


 this tab is in dropped-D tuning


 


 VERSE:


 


 guitar one:


 

 
 E--------------------------------
 B--------------------------------
 G7-7-7-7-7-7-99-66-6-6-6-6-6-66-6
 D7-7-7-7-7-7-77-77-7-7-7-7-7-77-7
 A5-5-5-5-5-5-55-55-5-5-5-5-5-55-5
 D-------------------------------- x4

 


 counts: 1 2 3 4 1 2 3& &1 2 3 4 1 2 3& &


 


 guitar two:


 

 
 E--------------------------------
 B--------------------------------
 G--------------------------------

 


 [D99999999999999995555555555555555]  


 [A99999999999999995555555555555555]D99999999999999995555555555555555 x4


 counts: 1 2 3 4 1 2 3 4 1 2 3 4 1 2 3 4


 


 PRE-CHORUS:


 guitar one:


 

 
 E----------------
 B----------------
 G6-6-6-6-6-6-6-6-
 D7-7-7-7-7-7-7-7-
 A5-5-5-5-5-5-5-5-
 D---------------- x1

 


 [1] [2] [3] [4] [1] [2] [3] [4]  


 CHORUS:


 


 both guitars, unison


 


 

 
 E--------------------------------
 B--------------------------------
 G--------------------------------
 D9-9-9999-9--99995-5-5554-4--4444
 A9-9-9999-9--99995-5-5555-5--5555
 D9-9-9999-9--99995-5-5555-5--5555 x4

 


 


 VERSE 2: same as verse 1


 CHORUS:


 


 BRIDGE:


 

 
 E----------------------------------------
 B----------------------------------------
 G----------------------------------------
 D555555550---45-0----45409999999977777777
 A555555550---45-0----45409999999977777777
 D555555550---45-0----45409999999977777777 x2

 


 end with:[1] [2] [3] [4] [1] [2] [3] [4] [1] [2] [3] [4] [1] [2] [3] [4] [1] [2] [3] [4]


 

 
 E----------------
 B----------------
 G----------------

 


 [D5555555544444444]  


 [A5555555555555555]  


 CHORUS:[D5555555555555555]


 VERSE: play x2 rather than 4


 


 THATS IT!! ENJOY. listen to the song if you have any problemsband: Armor For Sleep


 song: all warm


 tabbed by: kyle ebersole


 


 this tab is in dropped-D tuning


 


 VERSE:


 


 guitar one:


 

 
 E--------------------------------
 B--------------------------------
 G7-7-7-7-7-7-99-66-6-6-6-6-6-66-6
 D7-7-7-7-7-7-77-77-7-7-7-7-7-77-7
 A5-5-5-5-5-5-55-55-5-5-5-5-5-55-5
 D-------------------------------- x4

 


 counts: 1 2 3 4 1 2 3& &1 2 3 4 1 2 3& &


 


 guitar two:


 

 
 E--------------------------------
 B--------------------------------
 G--------------------------------

 


 [D99999999999999995555555555555555]  


 [A99999999999999995555555555555555]D99999999999999995555555555555555 x4


 counts: 1 2 3 4 1 2 3 4 1 2 3 4 1 2 3 4


 


 PRE-CHORUS:


 guitar one:


 

 
 E----------------
 B----------------
 G6-6-6-6-6-6-6-6-
 D7-7-7-7-7-7-7-7-
 A5-5-5-5-5-5-5-5-
 D---------------- x1

 


 [1] [2] [3] [4] [1] [2] [3] [4]  


 CHORUS:


 


 both guitars, unison


 


 

 
 E--------------------------------
 B--------------------------------
 G--------------------------------
 D9-9-9999-9--99995-5-5554-4--4444
 A9-9-9999-9--99995-5-5555-5--5555
 D9-9-9999-9--99995-5-5555-5--5555 x4

 


 


 VERSE 2: same as verse 1


 CHORUS:


 


 BRIDGE:


 

 
 E----------------------------------------
 B----------------------------------------
 G----------------------------------------
 D555555550---45-0----45409999999977777777
 A555555550---45-0----45409999999977777777
 D555555550---45-0----45409999999977777777 x2

 


 end with:[1] [2] [3] [4] [1] [2] [3] [4] [1] [2] [3] [4] [1] [2] [3] [4] [1] [2] [3] [4]


 

 
 E----------------
 B----------------
 G----------------


Important: The song above is NOT stored on the Chordie server. The original song is hosted at www.xguitar.com. Chordie works as a search engine and provides on-the-fly formatting. Chordie does not index songs against artists'/composers' will. To remove this song please click here.

This song is displayed as text-only. Transposing and tuning is only available for chordpro-songs.
Rate #1 of 2 versions

Jango Player

Login - add to songbook

SHARE PAGE  




You need to log in to post comments