Guitar Tabs, Chords and Lyrics
Major upgrade!! After one year development the new version of Chordie is now online! Please give feedback.


Beast and the Harlot  Avenged Sevenfold

THE BEAST AND THE HARLOT
by Avenged Sevenfold
(From the 2005 Album CITY OF EVIL)
Words and Music by Avenged Sevenfold
Arranged by Avenged Sevenfold
Gtr I (D A D G B E) - 'Untitled'
Gtr II (D A D G B E) - 'Untitled'
Gtr III (D A D G B E) - 'Untitled'
Gtr IV (D A D G B E) - 'Untitled'
Intro
Moderately Slow Rock Q.=52
9[F#5]/8[D5]
Gtr I
 
 |------------------------||----------------------|
 |------------------------||----------------------|
 |------------------------||--7----7--7--7--7---7-|
 |--4---4--4--4--4--4---4-||--7----7--7--7--7---7-|
 |--4---4--4--4--4--4---4-||--5----5--5--5--5---5-|
 |--4---4--4--4--4--4---4-||----------------------|

|
| Gtr II
| ~~ ~~ ~~ ~~
 
 |------------------------||----------------------|
 |--7---7--6--7--9-10---5-||--6----6--5--6--8--/6-|
 |------------------------||----------------------|
 |------------------------||----------------------|
 |------------------------||----------------------|
 |------------------------||----------------------|

|
| Gtr IV
 
 |------------------------||----------------------|
 |-19--19-18-19-21-22--17-||-18---18-17-18-20--18-|
 |------------------------||----------------------|
 |-16--16-15-16-18-19--14-||-15---15-14-15-17--15-|
 |------------------------||----------------------|
 |------------------------||----------------------|

[Db5] 6[C5]/8
 
 |----------------------|------------------|
 |----------------------|------------------|
 |--6----6--6--6--6---6-|--5------5--5--5--|
 |--6----6--6--6--6---6-|--5------5--5--5--|
 |--4----4--4--4--4---4-|--3------3--3--3--|
 |----------------------|------------------|

|
| ~~ ~~ ~~
 
 |----------------------|------------------|
 |--6----6--5--6--8--/6-|--6---6--5--6--8--|
 |----------------------|------------------|
 |----------------------|------------------|
 |----------------------|------------------|
 |----------------------|------------------|

|
 
 |----------------------|------------------|
 |-18---18-17-18-20--18-|-18--18-17-18-20--|
 |----------------------|------------------|
 |-15---15-14-15-17--15-|-15--15-14-15-17--|
 |----------------------|------------------|
 |----------------------|------------------|

[F5] [Db5]  
 
 |-----------------------------|--------------------------|
 |-----------------------------|--------------------------|
 |-----------------------------|---6-6-6---6---6--6--6--6-|
 |--3-3-3--3---3--3-3-3--3---3-|---6-6-6---6---6--6--6--6-|
 |--3-3-3--3---3--3-3-3--3---3-|---4-4-4---4---4--4--4--4-|
 |--3-3-3--3---3--3-3-3--3---3-|--------------------------|

|
| ~~ ~~ ~~~
 
 |-----------------------------|--------------------------|
 |-/9-----(9)\---/9-----(9)\---|-/11-----(11)\----9-11-13-|
 |-----------------------------|--------------------------|
 |-----------------------------|--------------------------|
 |-----------------------------|--------------------------|
 |-----------------------------|--------------------------|

|
 
 |-16------------16------------|--18-------------16-18-20-|
 |-----------------------------|--------------------------|
 |-13------------13------------|--15-------------13-15-17-|
 |-----------------------------|--------------------------|
 |-----------------------------|--------------------------|
 |-----------------------------|--------------------------|

[Bb5]  
 
 |---------------------------------|
 |---------------------------------|
 |---3-3-3---3---3---3-3-3---3---3-|
 |---3-3-3---3---3---3-3-3---3---3-|
 |---1-1-1---1---1---1-1-1---1---1-|
 |---------------------------------|

|
| ~~~ ~~~
 
 |---------------------------------|
 |-/14-----(14)\---/14-----(14)\---|
 |---------------------------------|
 |---------------------------------|
 |---------------------------------|
 |---------------------------------|

|
 
 |--21--------------21-------------|
 |---------------------------------|
 |--18--------------18-------------|
 |---------------------------------|
 |---------------------------------|
 |---------------------------------|

[A5]  
 
 |-----------------|----------------||
 |-----------------|----------------||
 |--2--------------|--(2)-----------||
 |--2--------------|--(2)-----------||
 |--0--------------|--(0)-----------||
 |-----------------|----------------||

|
| ~~~~~~~~~~~~~~~~~~~~
 
 |-----------------|----------------||
 |-16b17====(16)---|-(16)---(16)r---||
 |-----------------|----------------||
 |-----------------|----------------||
 |-----------------|----------------||
 |-----------------|----------------||

|
 
 |-21--------------|-(21)-----------||
 |-----------------|----------------||
 |-18--------------|-(18)-----------||
 |-----------------|----------------||
 |-----------------|----------------||
 |-----------------|----------------||

Faster Q=155
[D5]  
[4/4] Gtr I
 
 |----------|------------|------------|--------|
 |----------|------------|------------|--------|
 |----------|------------|------------|--------|
 |-0--------|-(0)--------|-(0)--------|-(0)----|
 |-0--------|-(0)--------|-(0)--------|-(0)----|
 |-0--------|-(0)--------|-(0)--------|-(0)----|

|
| Gtr II
 
 |----------|------------|------------|--------|
 |----------|------------|------------|--------|
 |----------|------------|------------|--------|
 |-0--------|-(0)--------|-(0)--------|-(0)----|
 |-0--------|-(0)--------|-(0)--------|-(0)----|
 |-0--------|-(0)--------|-(0)--------|-(0)----|

[D5]Gtr I
 
 |--------------------------------|-----------------------------|
 |--------------------------------|-----------------------------|
 |--------------------------------|-----------------------------|
 |--0-----------------------------|--(0)------------------------|
 |--0-----------------------------|--(0)------------------------|
 |--0-----------------------------|--(0)------------------------|

|
| Gtr II
 
 | PM----| PM----| PM----| PM----| PM----|
 |--------------------------------|-----------------------------|
 |--------------------------------|-----------------------------|
 |--------------------------------|-----------------------------|
 |--0-0-0-0-15-0-0-0-0-17-0-0-0-0-|--18--0-0-0-0-17-0-0-0-0-15--|
 |--------------------------------|-----------------------------|
 |--------------------------------|-----------------------------|

|
| Gtr III
 
 |-22-----------------------------|-(22)------------------------|
 |--------------------------------|-----------------------------|
 |--------------------------------|-----------------------------|
 |--------------------------------|-----------------------------|
 |--------------------------------|-----------------------------|
 |--------------------------------|-----------------------------|
 |----------------------------------|-------------------------------|
 |----------------------------------|-------------------------------|
 |----------------------------------|-------------------------------|
 |--(0)-----------------------------|--(0)--------------------------|
 |--(0)-----------------------------|--(0)--------------------------|
 |--(0)-----------------------------|--(0)--------------------------|

|
 
 | PM-----| PM----| PM----| PM----| PM----|
 |----------------------------------|-------------------------------|
 |----------------------------------|-------------------------------|
 |----------------------------------|-------------------------------|
 |---0--0-0-0-15-0-0-0-0-17-0-0-0-0-|--18--0-0-0-0-17-0-0-0-0-15----|
 |----------------------------------|-------------------------------|
 |----------------------------------|-------------------------------|

|
 
 |-(22)-----------------------------|-(22)--------------------------|
 |----------------------------------|-------------------------------|
 |----------------------------------|-------------------------------|
 |----------------------------------|-------------------------------|
 |----------------------------------|-------------------------------|
 |----------------------------------|-------------------------------|

[D5]  
 
 |----------------------------------|----------------------------|
 |----------------------------------|----------------------------|
 |----------------------------------|----------------------------|
 |--(0)-----------------------------|-(0)------------------------|
 |--(0)-----------------------------|-(0)------------------------|
 |--(0)-----------------------------|-(0)------------------------|

|
 
 | PM-----| PM----| PM----| PM----| PM----|
 |----------------------------------|----------------------------|
 |----------------------------------|----------------------------|
 |----------------------------------|----------------------------|
 |---0--0-0-0-15-0-0-0-0-17-0-0-0-0-|-18--0-0-0-0-17-0-0-0-0-15--|
 |----------------------------------|----------------------------|
 |----------------------------------|----------------------------|

|
 
 |-(22)-----------------------------|----------------------------|
 |----------------------------------|----------------------------|
 |----------------------------------|----------------------------|
 |----------------------------------|----------------------------|
 |----------------------------------|----------------------------|
 |----------------------------------|----------------------------|
 |---------------------------------|------------------------------------------||
 |---------------------------------|------------------------------------------||
 |---------------------------------|------------------------------------------||
 |-(0)-----------------------------|-(0)--------------------------------------||
 |-(0)-----------------------------|-(0)--------------------------------------||
 |-(0)-----------------------------|-(0)--------------------------------------||

|
 
 | PM-----| PM----| PM----| PM----|
 |---------------------------------|-------------------------10s13-10----13---||
 |---------------------------------|----------------------10----------13------||
 |---------------------------------|-------------12-10-13---------------------||
 |--0--0-0-0-15-0-0-0-0-17-0-0-0-0-|-18--0-0-0-0------------------------------||
 |---------------------------------|------------------------------------------||
 |---------------------------------|------------------------------------------||

|
 
 |---------------------------------|------------------------------------------||
 |---------------------------------|------------------------------------------||
 |---------------------------------|------------------------------------------||
 |---------------------------------|------------------------------------------||
 |---------------------------------|------------------------------------------||
 |---------------------------------|------------------------------------------||

Pre-Verse
N.C. F5 G5 Ab5 G5 F5G5
 
 PM--------| PM----| PM----| PM----| PM----|
 |-------------------------------------|----------------------------|
 |-------------------------------------|----------------------------|
 |-------------------------------------|----------------------------|
 |----------------3----------5---------|---6----------5---------3-5-|
 |----------------3----------5---------|---6----------5---------3-5-|
 |--0-----0-0-0---3--0-0-0-0-5-0-0-0-0-|---6--0-0-0-0-5-0-0-0-0-3-5-|

|
 
 |-10----------------------------------|----------------------------|
 |-------------------------------------|----------------------------|
 |-------------------------------------|----------------------------|
 |-------------------------------------|----------------------------|
 |-------------------------------------|----------------------------|
 |-------------------------------------|----------------------------|

|
 
 |-20b22========(20)-------------------|-(20)-----------------------|
 |-------------------------------------|----------------------------|
 |-------------------------------------|----------------------------|
 |-------------------------------------|----------------------------|
 |-------------------------------------|----------------------------|
 |-------------------------------------|----------------------------|

[F5] [G5] [Ab5] [F5] [G5] [Ab5]  
 
 PM-----| PM----| PM| PM------| PM----| PM|
 |------------------------------|----------------------------------|
 |------------------------------|----------------------------------|
 |------------------------------|----------------------------------|
 |------------3---------5-----6-|-------------3---------5-----6----|
 |------------3---------5-----6-|-------------3---------5-----6----|
 |---0--0-0-0-3-0-0-0-0-5-0-0-6-|---0---0-0-0-3-0-0-0-0-5-0-0-6----|

|
 
 |------------------------------|----------------------------------|
 |------------------------------|----------------------------------|
 |------------------------------|----------------------------------|
 |------------------------------|----------------------------------|
 |------------------------------|----------------------------------|
 |------------------------------|----------------------------------|

|
 
 |-(20)-------------------------|-(20)r----------------------------|
 |------------------------------|----------------------------------|
 |------------------------------|----------------------------------|
 |------------------------------|----------------------------------|
 |------------------------------|----------------------------------|
 |------------------------------|----------------------------------|

N.C. F5 G5 Ab5 G5 F5G5
Gtr I
 
 PM----| PM----| PM----| PM----| PM----|
 |-----------------------------|-------------------------|
 |-----------------------------|-------------------------|
 |-----------------------------|-------------------------|
 |---------3---------5---------|-6---------5---------3-5-|
 |---------3---------5---------|-6---------5---------3-5-|
 |-0-0-0-0-3-0-0-0-0-5-0-0-0-0-|-6-0-0-0-0-5-0-0-0-0-3-5-|

[F5] [G5] [Ab5] [F5]  
 
 PM----| PM----| PM| PM----| PM----| PM|
 |---------------------------|------------------------------||
 |---------------------------|------------------------------||
 |---------------------------|------------------------------||
 |---------3---------5-----6-|---------3---------3-----3----||
 |---------3---------5-----6-|---------3---------3-----3----||
 |-0-0-0-0-3-0-0-0-0-5-0-0-6-|-0-0-0-0-3-0-0-0-0-3-0-0-3----||

Verse
$
N.C. F5 G5 Ab5 G5 F5G5
Gtrs I, II
 
 PM----| PM----| PM----| PM----| PM----|
 ||------------------------------|-------------------------|
 ||o-----------------------------|-------------------------|
 ||------------------------------|-------------------------|
 ||----------3---------5---------|-6---------5---------3-5-|
 ||o---------3---------5---------|-6---------5---------3-5-|
 ||--0-0-0-0-3-0-0-0-0-5-0-0-0-0-|-6-0-0-0-0-5-0-0-0-0-3-5-|

N.C. F5 G5 Ab5 F5 G5 Ab5
 
 PM----| PM----| PM| PM----| PM----| PM|
 |---------------------------|------------------------------|
 |---------------------------|------------------------------|
 |---------------------------|------------------------------|
 |---------3---------5-----6-|---------3---------5-----6----|
 |---------3---------5-----6-|---------3---------5-----6----|
 |-0-0-0-0-3-0-0-0-0-5-0-0-6-|-0-0-0-0-3-0-0-0-0-5-0-0-6----|

N.C. F5 G5 Ab5 G5 F5G5
 
 PM----| PM----| PM----| PM----| PM----|
 |-----------------------------|-------------------------|
 |-----------------------------|-------------------------|
 |-----------------------------|-------------------------|
 |---------3---------5---------|-6---------5---------3-5-|
 |---------3---------5---------|-6---------5---------3-5-|
 |-0-0-0-0-3-0-0-0-0-5-0-0-0-0-|-6-0-0-0-0-5-0-0-0-0-3-5-|

N.C. F5 G5 Ab5 F5
 
 PM----| PM----| PM| PM----| PM----| PM|
 |---------------------------|------------------------------|
 |---------------------------|------------------------------|
 |---------------------------|------------------------------|
 |---------3---------5-----6-|---------3---------3-----3----|
 |---------3---------5-----6-|---------3---------3-----3----|
 |-0-0-0-0-3-0-0-0-0-5-0-0-6-|-0-0-0-0-3-0-0-0-0-3-0-0-3----|

[Bb5] [G5] [Ab5A5] [Bb5] [A5] [Bb5B5] [C5]  
 
 |-----------|--------------||---------------||
 |-----------|-------------o||---------------||
 |-----------|--------------||---------------||
 |-8------8S=|=5--6--7--8---||-7--8--9--10\--||
 |-8------8S=|=5--6--7--8--o||-7--8--9--10\--||
 |-8------8S=|=5--6--7--8---||-7--8--9--10\--||

Chorus
$$
Gtr I
||------------------------------------|
||o-----------------------------------|
||------------------------------------|
||---3--3-3-(3)-3--3--3--3-3-(3)-3--3-|
||o--3--3-3-(3)-3--3--3--3-3-(3)-3--3-|
||---3--3-3-(3)-3--3--3--3-3-(3)-3--3-|
|
| Gtr II
||----------------13---------------13-|
||o---------13---------------13-------|
||-----14---------------14------------|
||--15---------------15---------------|
||o-----------------------------------|
||------------------------------------|
|-----------------------------------------|
|-----------------------------------------|
|-----------------------------------------|
|-10-10-10-(10)-10-10-10-10-10-(10)-10-10-|
|-10-10-10-(10)-10-10-10-10-10-(10)-10-10-|
|-10-10-10-(10)-10-10-10-10-10-(10)-10-10-|
|
|------------------12------------------12-|
|-----------13------------------13--------|
|----12------------------12---------------|
|-14------------------14------------------|
|-----------------------------------------|
|-----------------------------------------|
|-----------------------------------|------------------------------------||
|-----------------------------------|-----------------------------------o||
|-----------------------------------|------------------------------------||
|--8--8-8-(8)-8--8--8--8-8-(8)-8--8-|--8--8-8-(8)-8--8--8--8-8-(8)-8--8--||
|--8--8-8-(8)-8--8--8--8-8-(8)-8--8-|--8--8-8-(8)-8--8--8--8-8-(8)-8--8-o||
|--8--8-8-(8)-8--8--8--8-8-(8)-8--8-|--8--8-8-(8)-8--8--8--8-8-(8)-8--8--||
|
|---------------10---------------10-|---------------10-10------12--------||
|---------11---------------11-------|---------11----------11---------13-o||
|----10---------------10------------|----10------------------------------||
|-12---------------12---------------|-12---------------------------------||
|-----------------------------------|-----------------------------------o||
|-----------------------------------|------------------------------------||
|-----------------------------------|-----------------------------------|
|-----------------------------------|-----------------------------------|
|-----------------------------------|-----------------------------------|
|--5--5-5-(5)-5--5--5--5-5-(5)-5--5-|--3--3-3-(3)-3--3--3--3-3-(3)-3--3-|
|--5--5-5-(5)-5--5--5--5-5-(5)-5--5-|--3--3-3-(3)-3--3--3--3-3-(3)-3--3-|
|--5--5-5-(5)-5--5--5--5-5-(5)-5--5-|--3--3-3-(3)-3--3--3--3-3-(3)-3--3-|
|
|---------------15---------------15-|---------------13---------------13-|
|---------15---------------15-------|---------13---------------13-------|
|----15---------------15------------|----14---------------14------------|
|-17---------------17---------------|-15---------------15---------------|
|-----------------------------------|-----------------------------------|
|-----------------------------------|-----------------------------------|
|-----------------------------------------|-----------------------------------|
|-----------------------------------------|-----------------------------------|
|-----------------------------------------|-----------------------------------|
|-10-10-10-(10)-10-10-10-10-10-(10)-10-10-|--8--8-8-(8)-8--8--8--8-8-(8)-8--8-|
|-10-10-10-(10)-10-10-10-10-10-(10)-10-10-|--8--8-8-(8)-8--8--8--8-8-(8)-8--8-|
|-10-10-10-(10)-10-10-10-10-10-(10)-10-10-|--8--8-8-(8)-8--8--8--8-8-(8)-8--8-|
|
|------------------12------------------12-|---------------10---------------10-|
|-----------13------------------13--------|---------11---------------11-------|
|----12------------------12---------------|----10---------------10------------|
|-14------------------14------------------|-12---------------12---------------|
|-----------------------------------------|-----------------------------------|
|-----------------------------------------|-----------------------------------|
|---------------------------|--------------------------|
|---------------------------|--------------------------|
|-10------------9-----------|--------------------------|
|-10--8-(8)--8--9--8-(8)--8-|-12--8-(8)--8-10--8--7--8-|
|--8--8-(8)--8--7--8-(8)--8-|-12--8-(8)--8-10--8--7--8-|
|-----8-(8)--8-----8-(8)--8-|-12--8-(8)--8-10--8--7--8-|
|
|-13-----------12-----------|-10-----------------------|
|----11-----11----11-----11-|----11-----11-13-11-10-11-|
|-------10-----------10-----|-------10-----------------|
|---------------------------|--------------------------|
|---------------------------|--------------------------|
|---------------------------|--------------------------|
To Coda
To Coda
|----------------------------|-----------------------------||
|----------------------------|-----------------------------||
|----------------------------|-----------------------------||
|--7--7-(7)--7-11-11-(11)-11-|-11-11-(11)-11-11-11-(11)-11-||
|--7--7-(7)--7-12-12-(12)-12-|-12-12-(12)-12-12-12-(12)-12-||
|--7--7-(7)--7-11-11-(11)-11-|-11-11-(11)-11-11-11-(11)-11-||
|
|-12-----------10------------|--9--------------------------||
|----10-----10----10------10-|----10------10-11-10---------||
|--------9-------------9-----|---------9-------------9-----||
|----------------------------|--------------------------11-||
|----------------------------|-----------------------------||
|----------------------------|-----------------------------||
Bridge
N.C. F5 G5 Ab5 G5 F5G5
Gtr I
PM----| PM----| PM------| PM----| PM----|
|----------------------------------|--------------------------|
|----------------------------------|--------------------------|
|----------------------------------|--------------------------|
|----------3---------5-------------|--6---------5---------3-5-|
|----------3---------5-------------|--6---------5---------3-5-|
|--0-0-0-0-3-0-0-0-0-5---0---0-0-0-|--6-0-0-0-0-5-0-0-0-0-3-5-|
|
| Gtrs II, III Gtr II
|-10-------------------(10)\-------|-13-----------------------|
|----------------------------------|--------------------------|
|--7--------------------(7)\-------|--------------------------|
|----------------------------------|--------------------------|
|----------------------------------|--------------------------|
|----------------------------------|--------------------------|
N.C. F5 G5 Ab5 F5
PM----| PM----| PM| PM----| PM----| PM|
|----------------------------|------------------------------------|
|----------------------------|------------------------------------|
|----------------------------|------------------------------------|
|----------3---------5-----6-|--------------3----------3-----3----|
|----------3---------5-----6-|--------------3----------3-----3----|
|--0-0-0-0-3-0-0-0-0-5-0-0-6-|--0-0-0---0---3--0-0-0-0-3-0-0-3----|
|
|-16-------------------------|-16-----/16-(16)--------------------|
|----------------------------|------------------------------------|
|----------------------------|------------------------------------|
|----------------------------|------------------------------------|
|----------------------------|------------------------------------|
|----------------------------|------------------------------------|
|---------------------------------|-----------------------------|
|---------------------------------|-----------------------------|
|---------------------------------|-----------------------------|
|--8----------------------8S======|==5------6------7------8-----|
|--8----------------------8S======|==5------6------7------8-----|
|--8----------------------8S======|==5------6------7------8-----|
|
|-13-10----10---------------------|-----------------------------|
|-------13----13b15=====(13)r(13)-|--8------9-----10-----11-----|
|---------------------------------|-10b12--11b13--12b14--13b15--|
|---------------------------------|-----------------------------|
|---------------------------------|-----------------------------|
|---------------------------------|-----------------------------|
|--------------------------------------------------||
|--------------------------------------------------||
|--------------------------------------------------||
|--7-----------8-----------9----------10\----------||
|--7-----------8-----------9----------10\----------||
|--7-----------8-----------9----------10\----------||
|
|-----------------------------------------12-13-15-||
|-13-12-11-10-14-13-12-11-15-14-13-14s15-----------||
|--------------------------------------------------||
|--------------------------------------------------||
|--------------------------------------------------||
|--------------------------------------------------||
Guitar Solo
|----------------------------------------------|
|----------------------------------------------|
|----------------------------------------------|
|--3-3-3--(3)-3--3-----3-----3--3-(3)--3--3----|
|--3-3-3--(3)-3--3-----3-----3--3-(3)--3--3----|
|--3-3-3--(3)-3--3-----3-----3--3-(3)--3--3----|
|
|-17-----(17)---17-------17--------------------|
|------------------18-17----17-18-17-----17----|
|-------------------------------------17----17-|
|----------------------------------------------|
|----------------------------------------------|
|----------------------------------------------|
|---------------------------------------------------|
|---------------------------------------------------|
|---------------------------------------------------|
|-10----10-10-(10)-10-10---10---10-10-(10)-10-10----|
|-10----10-10-(10)-10-10---10---10-10-(10)-10-10----|
|-10----10-10-(10)-10-10---10---10-10-(10)-10-10----|
|
|-20-17---------------------------------------------|
|-------20-17S==3---1----1--------------------------|
|----------------------2----------------------------|
|---------------------------------------5---6--7-8--|
|---------------------------5-6--7--8---------------|
|---------------------------------------------------|
|---------------------------------|
|---------------------------------|
|---------------------------------|
|-8-8-8-(8)-8-8---8-8-8-(8)-8-8---|
|-8-8-8-(8)-8-8---8-8-8-(8)-8-8---|
|-8-8-8-(8)-8-8---8-8-8-(8)-8-8---|
|
|---------------------------------|
|---------------------------------|
|-7-----(7)S====5-9-----(9)---7-9-|
|---------------------------------|
|---------------------------------|
|---------------------------------|
|---------------------------------------------|
|---------------------------------------------|
|---------------------------------------------|
|--8-8-8--(8)-8-8-----8-----8--8-(8)--8--8----|
|--8-8-8--(8)-8-8-----8-----8--8-(8)--8--8----|
|--8-8-8--(8)-8-8-----8-----8--8-(8)--8--8----|
|
|------------------------------------------12-|
|-----------------------10-13-10-----10-13----|
|-10-----(10)---9-10-13----------13-----------|
|---------------------------------------------|
|---------------------------------------------|
|---------------------------------------------|
Gtr I
|-----------------------------------------------|
|-----------------------------------------------|
|-----------------------------------------------|
|---3-3-3--(3)-3---3-----3---3---3--(3)-3---3---|
|---3-3-3--(3)-3---3-----3---3---3--(3)-3---3---|
|---3-3-3--(3)-3---3-----3---3---3--(3)-3---3---|
|
| Gtr II
|-/13-----(13)---(13)\-/13-(13)\---/15----(15)\-|
|-----------------------------------------------|
|-----------------------------------------------|
|-----------------------------------------------|
|-----------------------------------------------|
|-----------------------------------------------|
|
| Gtr III
|-/17-----(17)---(17)\-/17-(17)\---/18----(18)\-|
|-----------------------------------------------|
|-----------------------------------------------|
|-----------------------------------------------|
|-----------------------------------------------|
|-----------------------------------------------|
|-------------------------------------------------|
|-------------------------------------------------|
|-------------------------------------------------|
|--10-10-10-(10)-10--10----10-10-10-(10)-10--10---|
|--10-10-10-(10)-10--10----10-10-10-(10)-10--10---|
|--10-10-10-(10)-10--10----10-10-10-(10)-10--10---|
|
|-/12-------(12)----(12)\-------------------------|
|-------------------------/13-------(13)----(13)\-|
|-------------------------------------------------|
|-------------------------------------------------|
|-------------------------------------------------|
|-------------------------------------------------|
|
|-/15-------(15)----(15)\-------------------------|
|-------------------------/17-------(17)----(17)\-|
|-------------------------------------------------|
|-------------------------------------------------|
|-------------------------------------------------|
|-------------------------------------------------|
|-------------------------------------------------|
|-------------------------------------------------|
|-------------------------------------------------|
|--8-----8-8--(8)-8---8----8------8-8--(8)-8---8--|
|--8-----8-8--(8)-8---8----8------8-8--(8)-8---8--|
|--8-----8-8--(8)-8---8----8------8-8--(8)-8---8--|
|
|-------------------------------------------------|
|-13b15======(13)r==(13)-(13)b15======(13)r==(13)-|
|-------------------------------------------------|
|-------------------------------------------------|
|-------------------------------------------------|
|-------------------------------------------------|
|
|-12b13======(12)r==(12)-(12)b13======(12)r==(12)-|
|-------------------------------------------------|
|-------------------------------------------------|
|-------------------------------------------------|
|-------------------------------------------------|
|-------------------------------------------------|
|-------------------------------|
|-------------------------------|
|-------------------------------|
|--8--8-8-(8)-8-8-8-8-8-(8)-8-8-|
|--8--8-8-(8)-8-8-8-8-8-(8)-8-8-|
|--8--8-8-(8)-8-8-8-8-8-(8)-8-8-|
|
| ~~~
|-------------------------------|
|-------------------------------|
|-[5]---------------------------|
|-------------------------------|
|-------------------------------|
|-------------------------------|
|
| ~~~
|-------------------------------|
|-[5]---------------------------|
|-------------------------------|
|-------------------------------|
|-------------------------------|
|-------------------------------|
Gtr I
|-----------------------------------------------------|
|-----------------------------------------------------|
|-----------------------------------------------------|
|-5---5-5-(5)-5-5---5-------5---5---(5)---5---5-------|
|-5---5-5-(5)-5-5---5-------5---5---(5)---5---5-------|
|-5---5-5-(5)-5-5---5-------5---5---(5)---5---5-------|
|
| Gtr II
| PM---------------------------------------------------
|-----------------------------------------------------|
|-----------------------------------------------------|
|-------------------8-7-6-5-8-7-6-5-------------------|
|----------5--6-7-8------------------8--7-6-5-8-7-6-5-|
|-5-6-7-8---------------------------------------------|
|-----------------------------------------------------|
|-----------------------------------------------------------|
|-----------------------------------------------------------|
|-----------------------------------------------------------|
|-3---3--3-(3)-3-3-----3--------3---3---(3)---3----3--------|
|-3---3--3-(3)-3-3-----3--------3---3---(3)---3----3--------|
|-3---3--3-(3)-3-3-----3--------3---3---(3)---3----3--------|
|
|--------------------------------------------------------|
|-----------------------------------------------------------|
|-----------------------------------------------------------|
|---------------------10-9-8-7-10-9-8-7---------------------|
|-----------7--8-9-10-------------------10--9-8-7-10-9-8-7--|
|-7-8-9-10--------------------------------------------------|
|-----------------------------------------------------------|
|-------------------------------------------------------------|
|-------------------------------------------------------------|
|-------------------------------------------------------------|
|-10----10-10-(10)-10-10----10---10-10-(10)----10----10-------|
|-10----10-10-(10)-10-10----10---10-10-(10)----10----10-------|
|-10----10-10-(10)-10-10----10---10-10-(10)----10----10-------|
|
|-------------------------------------------------------------|
|---------------------------------------10--11----13-10-11-13-|
|---------------------------12-9-10-12------------------------|
|--------------10--11-12-13-----------------------------------|
|-10-11-12-13-------------------------------------------------|
|-------------------------------------------------------------|
|----------------------------------------------------------|
|----------------------------------------------------------|
|----------------------------------------------------------|
|--8--------8----8----(8)----8-----8--------8-8-8-(8)-8-8--|
|--8--------8----8----(8)----8-----8--------8-8-8-(8)-8-8--|
|--8--------8----8----(8)----8-----8--------8-8-8-(8)-8-8--|
|
| ~~
|-10-12-13-12-10-------------------------------------------|
|------------------13-10--11---13-11-10--------------------|
|---------------------------------------12-10--------------|
|----------------------------------------------------------|
|----------------------------------------------------------|
|----------------------------------------------------------|
Gtr I
|---------------------------------------------------|
|---------------------------------------------------|
|---------------------------------------------------|
|--8-----8--8-(8)--8--8-----8-----8--8-(8)--8--8----|
|--8-----8--8-(8)--8--8-----8-----8--8-(8)--8--8----|
|--8-----8--8-(8)--8--8-----8-----8--8-(8)--8--8----|
|
| Gtr II
|-13-12-11-10---------------------------------------|
|-------------14--13-12-11-10-----------------------|
|-----------------------------13-12-11-10-----------|
|------------------------------------------14-13-12-|
|---------------------------------------------------|
|---------------------------------------------------|
|
| Gtr III
|-22-21-20-19---------------------------------------|
|-------------23--22-21-20--------------------------|
|--------------------------23-22-21-20--------------|
|--------------------------------------24--23-22-21-|
|---------------------------------------------------|
|---------------------------------------------------|
|---------------------------------------------------|
|---------------------------------------------------|
|---------------------------------------------------|
|--8-----8--8-(8)--8--8-----8-----8--8-(8)--8--8----|
|--8-----8--8-(8)--8--8-----8-----8--8-(8)--8--8----|
|--8-----8--8-(8)--8--8-----8-----8--8-(8)--8--8----|
|
|-12-11-10------------------------------------------|
|----------14-13--12-11-10--------------------------|
|--------------------------13-12-11-10--------------|
|--------------------------------------14--13-12-11-|
|---------------------------------------------------|
|---------------------------------------------------|
|
|-21-20-19-18---------------------------------------|
|-------------22--21-20-19--------------------------|
|--------------------------22-21-20-19--------------|
|--------------------------------------23--22-21-20-|
|---------------------------------------------------|
|---------------------------------------------------|
|---------------------------------------------------|
|---------------------------------------------------|
|---------------------------------------------------|
|--7-----7--7-(7)--7--7-----7-----7--7-(7)--7--7----|
|--7-----7--7-(7)--7--7-----7-----7--7-(7)--7--7----|
|--7-----7--7-(7)--7--7-----7-----7--7-(7)--7--7----|
|
|-11-10---------------------------------------------|
|-------14-13-12--11-10-----------------------------|
|-----------------------13-12-11-10-----------------|
|-----------------------------------14-13--12-11-10-|
|---------------------------------------------------|
|---------------------------------------------------|
|
|-20-19-18-17---------------------------------------|
|-------------21--20-19-18--------------------------|
|--------------------------21-20-19-18--------------|
|--------------------------------------22--21-20-19-|
|---------------------------------------------------|
|---------------------------------------------------|
|-----------------------------------------------------||
|-----------------------------------------------------||
|-----------------------------------------------------||
|-11----11-11-(11)-11-11----11----11-11-(11)-11-11----||
|-12----12-12-(12)-12-12----10----10-10-(10)-10-10----||
|-11----11-11-(11)-11-11----11----11-11-(11)-11-11----||
|
|-10--------------------------------------------------||
|----14-13-12--11--10---------------------------------||
|---------------------13-12-11-10---------------------||
|---------------------------------14-13--12--11-10--9-||
|-----------------------------------------------------||
|-----------------------------------------------------||
|
|-19-18-17-16-----------------------------------------||
|--------------20--19-18-17---------------------------||
|---------------------------20-19-18-17---------------||
|----------------------------------------21--20-19-18-||
|-----------------------------------------------------||
|-----------------------------------------------------||
Verse
D.S. al Coda
N.C. F5 G5 Ab5 G5 F5G5
PM--------| PM-------| PM----| PM----| PM----|
|-------------------------------------|-----------------------------||
|-------------------------------------|-----------------------------||
|-------------------------------------|-----------------------------||
|--------------3------------5---------|---6-----------5---------3-5-||
|--------------3------------5---------|---6-----------5---------3-5-||
|--0-----0-0-0-3-0-0---0--0-5-0-0-0-0-|---6---0-0-0-0-5-0-0-0-0-3-5-||
|
| ~~~~~~~~~~~~~~~~~~~~~~~
|-------------------------------------|-----------------------------||
|-13b15==============(13)-------------|-(13)r-----------------------||
|-------------------------------------|-----------------------------||
|-------------------------------------|-----------------------------||
|-------------------------------------|-----------------------------||
|-------------------------------------|-----------------------------||
|
| ~~~~~~~~~~~~~~~~~~~~~~~
|-12b13==============(12)-------------|-(12)r-----------------------||
|-------------------------------------|-----------------------------||
|-------------------------------------|-----------------------------||
|-------------------------------------|-----------------------------||
|-------------------------------------|-----------------------------||
|-------------------------------------|-----------------------------||
Interlude
&
Gtr I
|-----------|------------------|-----------------|--------|
|-----------|------------------|-----------------|--------|
|-----------|------------------|-----------------|--------|
|--0--------|--(0)-------------|---0-------------|-(0)----|
|--0--------|--(0)-------------|---0-------------|-(0)----|
|--0--------|--(0)-------------|---0-------------|-(0)----|
|
| Gtr II
|-----------|------------------|-----------------|--------|
|-----------|------------------|-----------------|--------|
|-----------|------------------|-----------------|--------|
|-12--------|-(12)----(12)\----|-/12--------(12)s|=11-----|
|-----------|------------------|-----------------|--------|
|-----------|------------------|-----------------|--------|
|-----------------|-------------------|-------------|-----------||
|-----------------|-------------------|-------------|-----------||
|-----------------|-------------------|-------------|-----------||
|--0--------------|--(0)--------------|---0---------|--(0)------||
|--0--------------|--(0)--------------|---0---------|--(0)------||
|--0--------------|--(0)--------------|---0---------|--(0)------||
|
| \0.5 \0.5 \0.5
|-----------------|-------------------|-------------|-----------||
|-----------------|-------------------|-------------|-----------||
|-----------------|-------------------|-------------|-----------||
|-12----(12)------|-(12)----(12)------|-(12)--------|-(12)------||
|-----------------|-------------------|-------------|-----------||
|-----------------|-------------------|-------------|-----------||
N.C. F5 G5 Ab5 G5 F5G5
PM----| PM----| PM----| PM----| PM----|
|-----------------------------|---------------------------|
|-----------------------------|---------------------------|
|-----------------------------|---------------------------|
|---------3---------5---------|--6----------5---------3-5-|
|---------3---------5---------|--6----------5---------3-5-|
|-0-0-0-0-3-0-0-0-0-5-0-0-0-0-|--6--0-0-0-0-5-0-0-0-0-3-5-|
|
| \4
|-----------------------------|---------------------------|
|-----------------------------|---------------------------|
|-----------------------------|---------------------------|
|-0---------------------------|-(0)-----------------------|
|-0---------------------------|-(0)-----------------------|
|-0---------------------------|-(0)-----------------------|
N.C. F5 G5 Ab5 G5 F5G5
PM-----| PM----| PM----| PM----| PM----|
|-------------------------------|------------------------------|
|-------------------------------|------------------------------|
|-------------------------------|------------------------------|
|-----------3---------5---------|--6----------5---------3-5----|
|-----------3---------5---------|--6----------5---------3-5----|
|--0--0-0-0-3-0-0-0-0-5-0-0-0-0-|--6--0-0-0-0-5-0-0-0-0-3-5----|
|
|-------------------------------|------------------------------|
|-------------------------------|------------------------------|
|-------------------------------|------------------------------|
|-(0)---------------------------|-(0)--------------------------|
|-(0)---------------------------|-(0)--------------------------|
|-(0)---------------------------|-(0)--------------------------|
N.C. F5 G5 Ab5 G5 F5G5
PM----| PM----| PM----| PM----| PM----|
|-----------------------------|---------------------------|
|-----------------------------|---------------------------|
|-----------------------------|---------------------------|
|---------3---------5---------|--6----------5---------3-5-|
|---------3---------5---------|--6----------5---------3-5-|
|-0-0-0-0-3-0-0-0-0-5-0-0-0-0-|--6--0-0-0-0-5-0-0-0-0-3-5-|
|
|-----------------------------|---------------------------|
|-----------------------------|---------------------------|
|-----------------------------|---------------------------|
|-0---------------------------|-(0)-----------------------|
|-0---------------------------|-(0)-----------------------|
|-0---------------------------|-(0)-----------------------|
N.C. F5 G5 Ab5 G5 F5G5
PM----| PM----| PM----| PM----| PM----|
|-----------------------------|-----------------------------||
|-----------------------------|-----------------------------||
|-----------------------------|-----------------------------||
|---------3---------5---------|-6----------5---------3-5----||
|---------3---------5---------|-6----------5---------3-5----||
|-0-0-0-0-3-0-0-0-0-5-0-0-0-0-|-6--0-0-0-0-5-0-0-0-0-3-5----||
|
|-----------------------------|-----------------------------||
|-----------------------------|-----------------------------||
|-----------------------------|-----------------------------||
|-7---------------------------|-x\--------------------------||
|-7---------------------------|-x\--------------------------||
|-7---------------------------|-x\--------------------------||
Breakdown
Gtrs I, II
||------------------|----------------|-----------------|------------------||
||o-----------------|----------------|-----------------|-----------------o||
||--7-5-------------|----------------|-7-5-------------|------------------||
||--7-5-3-5-6-5-3-0-|-0-3-5-6-5-3-0--|-7-5-3-5-6-5-3-0-|-0-3-5-6-5-3-0----||
||o-5-3-3-5-6-5-3-0-|-0-3-5-6-5-3-0--|-5-3-3-5-6-5-3-0-|-0-3-5-6-5-3-0---o||
||------3-5-6-5-3-0-|-0-3-5-6-5-3-0--|-----3-5-6-5-3-0-|-0-3-5-6-5-3-0----||
Gtrs I, II
||--------------------------|-----------------------|
||o-------------------------|-----------------------|
||---7--5-------------------|-----------------------|
||---7--5--3--5--6--5--3--0-|--0--3--5--6--5--3--0--|
||o--5--3--3--5--6--5--3--0-|--0--3--5--6--5--3--0--|
||---------3--5--6--5--3--0-|--0--3--5--6--5--3--0--|
|
| Gtr III
||--10----------------------|-----------------------|
||o----13-------------------|-----------------------|
||--------10-12-13-12-10----|----10-12-13-12-10-----|
||-----------------------12-|-12----------------12--|
||o-------------------------|-----------------------|
||--------------------------|-----------------------|
|-------------------------|-------------------------||
|-------------------------|------------------------o||
|--7--5-------------------|-------------------------||
|--7--5--3--5--6--5--3--0-|--0--3--5--6--5--3--0----||
|--5--3--3--5--6--5--3--0-|--0--3--5--6--5--3--0---o||
|--------3--5--6--5--3--0-|--0--3--5--6--5--3--0----||
|
|-10----------------------|-------------------------||
|----13-------------------|------------------------o||
|-------10-12-13-12-10----|----10-12-13-12-10-------||
|----------------------12-|-12----------------12----||
|-------------------------|------------------------o||
|-------------------------|-------------------------||
D.S.S. al Dbl. Coda
|------------|---------------|------------------||
|------------|---------------|------------------||
|------------|---------------|------------------||
|--8------8S=|=5--6---7---8--|--7---8---9--10\--||
|--8------8S=|=5--6---7---8--|--7---8---9--10\--||
|--8------8S=|=5--6---7---8--|--7---8---9--10\--||
|
|------------|---------------|------------------||
|-11---------|-8--9--10--11--|-10--11--12--13---||
|------------|---------------|------------------||
|------------|---------------|------------------||
|------------|---------------|------------------||
|------------|---------------|------------------||
Chorus
&&
Gtr I
||------------------------------------|-----------------------------------|
||o-----------------------------------|-----------------------------------|
||------------------------------------|--9--9-9-(9)-9--9--9--9-9-(9)-9--9-|
||---7--7-7-(7)-7--7--7--7-7-(7)-7--7-|--9--9-9-(9)-9--9--9--9-9-(9)-9--9-|
||o--7--7-7-(7)-7--7--7--7-7-(7)-7--7-|--7--7-7-(7)-7--7--7--7-7-(7)-7--7-|
||---7--7-7-(7)-7--7--7--7-7-(7)-7--7-|-----------------------------------|
|
| Gtr II
||----------------17---------------17-|---------------16---------------16-|
||o---------17---------------17-------|---------17---------------17-------|
||-----18---------------18------------|----16---------------16------------|
||--19---------------19---------------|-18---------------18---------------|
||o-----------------------------------|-----------------------------------|
||------------------------------------|-----------------------------------|
|-----------------------------------|------------------------------------||
|-----------------------------------|-----------------------------------o||
|--7--7-7-(7)-7--7--7--7-7-(7)-7--7-|--7--7-7-(7)-7--7--7--7-7-(7)-7--7--||
|--7--7-7-(7)-7--7--7--7-7-(7)-7--7-|--7--7-7-(7)-7--7--7--7-7-(7)-7--7--||
|--5--5-5-(5)-5--5--5--5-5-(5)-5--5-|--5--5-5-(5)-5--5--5--5-5-(5)-5--5-o||
|-----------------------------------|------------------------------------||
|
|---------------14---------------14-|---------------14-14------16--------||
|---------15---------------15-------|---------15----------15---------17-o||
|----14---------------14------------|----14------------------------------||<br /

Important: The song above is NOT stored on the Chordie server. The original song is hosted at www.xguitar.com. Chordie works as a search engine and provides on-the-fly formatting. Chordie does not index songs against artists'/composers' will. To remove this song please click here.

Text color:
Chord color:
Chord grids: 
Font size:    
Page size: 

A5 Ab5 Bb5 C5 D5 Db5 F#5 F5 G5
Rate #6 of 8 versions

Login - add to songbook

SHARE PAGE  



You need to log in to post comments