Guitar Tabs, Chords and Lyrics
Major upgrade!! After one year development the new version of Chordie is now online! Please give feedback.


How Does It Feel   Avril Lavigne

 
 A] -77777777-33333333-77777777-33333333-77777777-3333333333333333--
 D] -99999999-55555555-99999999-55555555-99999999-5555555555555555--
 G] -99999999-55555555-99999999-55555555-99999999-5555555555555555--

 


 


 Chorus (palm muted): 'How does it feel:..'


 

 
 A] -77777777-55555555-33333333-55555555--
 D] -99999999-77777777-55555555-77777777--
 G] -99999999-77777777-55555555-77777777--

 


 


 Fill (palm muted):


 [G)] [-99999999-555555555555555555555555---]  


 Fill 2:


 

 
 G] -------------12-----
 B] -11---13------------

 


 


 Verse 2 (all this can be heard in the second verse): 'I am young and I am free:.'


 

 
 G] -------------12-------------------------12-----10-9--
 B] -13---15-------------------11---13-------------------

 


 


 Chorus 2: 'How does it feel to be::.'


 

 
 E] -5-----3-----1-----3-----5-----3-----1-----3-----5---
 A] -7-----5-----3-----5-----7-----5-----3-----5-----7---
 D] -7-----5-----3-----5-----7-----5-----3-----5-----7---

 


 


 Bridge: 'Would you come find me:::'


 

 
 E] ---------------3-3-3--5-5-5----
 A] -0-0-0--3-3-3--5-5-5--7-7-7----
 D] -2-2-2--5-5-5--5-5-5--7-7-7----
 G] -2-2-2--5-5-5------------------

 


 


 Fill 3: 'I am small and the world is big::.'


 

 
 E] --5---------5---------
 A] --7----3----7----3----
 D] --7----5----7----5----
 G] -------5---------5----

 


 


 Solo (can be heard during the last chorus of the song ):


 

 
 G] ---------10--13-13-13----------10--13-13-13----------10--13-13-13-----------13--15-15-15---
 B] -10-12-------------------10-12---------------10-12------------------10-12------------------


Important: The song above is NOT stored on the Chordie server. The original song is hosted at www.xguitar.com. Chordie works as a search engine and provides on-the-fly formatting. Chordie does not index songs against artists'/composers' will. To remove this song please click here.

This song is displayed as text-only. Transposing and tuning is only available for chordpro-songs.
Rate #5 of 7 versions

Login - add to songbook

SHARE PAGE  




You need to log in to post comments