Guitar Tabs, Chords and Lyrics
Major upgrade!! After one year development the new version of Chordie is now online! Please give feedback.


Dizzy Miss Lizzie  The Beatles

TAB: Dizzy Miss Lizzy
MUSIC BY: The Beatles (From the Help! album)
TABBED BY: The Beatles Central Team (jpgr_beatles@yahoo.com)
Intro: (Lead Guitar plays variations on this lick throughout the song)
[F]  
 
 E|------------------------------------|

B|-12b(14)(14)(14)-(14)r12-10-12b(14)-|
 
 G|------------------------------------|
 D|------------------------------------|
 A|------------------------------------|
 E|------------------------------------|

^ ^ ^ ^
(The following rhythm pattern is the same pattern for the whole song.
We will call it Rythym 1.)
[A]  
 
 E|---------------------------------|--------------------------------
 B|---------------------------------|--------------------------------
 G|---------------------------------|--------------------------------
 D|---------------------------------|--------------------------------
 A|-----------------7---7---9---7---|-----------------7---7---9---7--
 E|-5---5---8---9-------------------|-5---5---8---9------------------

^ ^ ^ ^ ^ ^ ^ ^
 
 E|---------------------------------|--------------------------------
 B|---------------------------------|--------------------------------
 G|---------------------------------|--------------------------------
 D|---------------------------------|--------------------------------
 A|-----------------7---7---9---7---|-----------------7---7---9---7--
 E|-5---5---8---9-------------------|-5---5---8---9------------------

^ ^ ^ ^ ^ ^ ^ ^
[D]  
 
 E|---------------------------------|--------------------------------
 B|---------------------------------|--------------------------------
 G|---------------------------------|--------------------------------
 D|-----------------7---7---9---7---|-----------------7---7---9---7--
 A|-5---5---8---9-------------------|-5---5---8---9------------------
 E|---------------------------------|--------------------------------

^ ^ ^ ^ ^ ^ ^ ^
[A]  
 
 E|---------------------------------|--------------------------------
 B|---------------------------------|--------------------------------
 G|---------------------------------|--------------------------------
 D|---------------------------------|--------------------------------
 A|-----------------7---7---9---7---|-----------------7---7---9---7--
 E|-5---5---8---9-------------------|-5---5---8---9------------------

^ ^ ^ ^ ^ ^ ^ ^
[E7] [D]  
 
 E|---------------------------------|--------------------------------
 B|---------------------------------|--------------------------------
 G|---------------------------------|--------------------------------
 D|-----------------9---9---11--9---|-----------------7---7---9---7--
 A|-7---7---10--11------------------|-5---5---8---9------------------
 E|---------------------------------|--------------------------------

^ ^ ^ ^ ^ ^ ^ ^
[A] [E7]You make me dizzy Miss
 
 E|---------------------------------|--------------------------------
 B|---------------------------------|--------------------------------
 G|---------------------------------|--------------------------------
 D|---------------------------------|-----------------9---9---11--9--
 A|-----------------7---7---9---7---|-7---7---10--11-----------------
 E|-5---5---8---9-------------------|--------------------------------

^ ^ ^ ^ ^ ^ ^ ^
Verse 1:(With Rhythm 1)
L[A]izzy The way you rock and roll
You make me dizzy Miss
L[D]izzy When we do the stroll
[A] Come on Miss L[E7]izzy
L[D]ove me 'fore I grow too o[A]ld
[E7] Come on give me
f[A]ever Put your little hand in mine
You make me dizzy Miss
L[D]izzy Oh! Girl you look so fine
[A] Just a rockin and a r[E7]ollin
G[D]irl I said I wish you were m[A]ine
A[E7]hhh
Instrumental:(With Rhythm 1)
[A]  
[D] [A]  
[E7] [D] [A] [E7]You make me dizzy Miss
Verse 2:(With Rhythm 1)
L[A]izzy When you call my name
Ooooh ba-
b[D]y Say you're driving me insane
[A] Come on, come on, come on, come on, b[E7]aby
I[D] want to be your lovin' m[A]an
[E7] Ah
Instrumental:(With Rhythm 1)
[A]  
[D] [A]  
[E7] [D] [A] [E7]Run and tell your ma-
Verse 3:(With Rhythm 1)
m[A]a I want you to be my bride
Run and tell your bro-
t[D]her Baby don't run and
h[A]ide You make me dizzy Miss L[E7]izzy
G[D]irl I want to marry you[A]
[E7] Come on give me
f[A]ever Put your little hand in mine
girl You make me dizzy Miss
L[D]izzy Girl you look so fine
[A] You're just a rockin and a ro[E7]llin
O[D]oh I said I wish you were m[A]ine
A[E7]hhh
Instrumental:(With Rhythm 1)
[A]  
[D] [A]  
[E7] [D] [A] [E7]You make me dizzy Miss
Verse 4:(With Rhythm 1)
L[A]izzy The way you rock and roll
You make me dizzy Miss
L[D]izzy When we do the stroll
[A] Come on Miss L[E7]izzy
L[D]ove me 'fore I grow too o[A]ld
[E7] Come on give me
f[A]ever Put your little hand in mine
You make me dizzy Miss
L[D]izzy Oh! Girl you look so fine
[A] Just a rockin and a r[E7]ollin
G[D]irl I said I wish you were m[A]ine
End with this chord:
[A6]  
 
 E|-2-------------------------------|
 B|-2-------------------------------|
 G|-2-------------------------------|
 D|-2-------------------------------|
 A|-0-------------------------------|
 E|---------------------------------|

^ ^ ^ ^
 
 -----------------------------------------------------------------

| Tabbed By the Beatles Central Team (jpgr_beatles@yahoo.com) |
| Visit Beatles Central for every major release by The Beatles |
| in MIDI and Tab form (over 250 songs), as well as biographies.|
| http://members.tripod.com/~jpgr_beatles/index.html |
 
 -----------------------------------------------------------------


Important: The song above is NOT stored on the Chordie server. The original song is hosted at www.xguitar.com. Chordie works as a search engine and provides on-the-fly formatting. Chordie does not index songs against artists'/composers' will. To remove this song please click here.

Text color:
Chord color:
Chord grids: 
Font size:    
Page size: 

A A6 D E7 F
Rate #1 of 3 versions

Login - add to songbook

SHARE PAGE  



You need to log in to post comments