Guitar Tabs, Chords and Lyrics
Major upgrade!! After one year development the new version of Chordie is now online! Please give feedback.


Ramshackle  Beck

Song: 13. Ramshackle
verse:
 
 -0-----------------------------------------
 -0-----------------------------------------
 -1---1--2--4--1---6--4--2--4---1--2--4--/4-
 -2---2--4--6--2---7--6--4--6---2--4--6--/6-
 -2-----------------------------------------
 -0----------------------------------------- 

[E]You've been so long
Your blind eyes are gone
Your old bones are on their own
So take off your coat
Put a song in your throat
Let the dead-beats pound all around
chorus:
 
 ------------------------------------2----0-
 ------------------------------------2----0-
 -6--4--2--1---6--4--2--1---6--4--2--3----1-
 -7--6--4--2---7--6--4--2---7--6--4--4----2-
 ------------------------------------4----2-
 ------------------------------------2----0- 

We will go
Nowhere we know
We don't [F#]have to talk at [E]all
Hand me downs
Flypaper towns
Stuck to[F#]gether
One and [E]all
The bargains you drive
Buckets and bags
And all your belongings
Your train's in the sand
Ramshackle land
Let the rats watch the races
We will go
Nowhere we know
'Til we find our one and all
Hand me downs
Flypaper towns
Stuck together
One and all
Praises get spent
Your trick face is bent
Pigsties and prizes
'Cause there's no kind of 'well'
You're suiting yourself
You leave yourself behind
We will go
Nowhere we know
'Til we find our one and all
Your hand me downs
Flypaper towns
Stuck together
One and all
 
 -----------------------------
 -4-2-------4-2------4-2------
 -----1-1-------1-1------1-3--
 -----------------------------
 -----------------------------
 -0---0-----0---0----0-----2-- 


Important: The song above is NOT stored on the Chordie server. The original song is hosted at www.xguitar.com. Chordie works as a search engine and provides on-the-fly formatting. Chordie does not index songs against artists'/composers' will. To remove this song please click here.

Text color:
Chord color:
Chord grids: 
Font size:    
Page size: 

E F#
Rate #1 of 1 versions

Jango Player

Login - add to songbook

SHARE PAGE  




You need to log in to post comments

geispatrickmsc (report)

Nice work. Keep it coming with his work. Not easy to interprete or hear even. Thanks. Beck listener.