Guitar Tabs, Chords and Lyrics
Major upgrade!! After one year development the new version of Chordie is now online! Please give feedback.


See Water  Beck

Track: 6. SEE WATER
tune guitar down 1/2 step
intro:
4x
 
 ||---------------||
 ||---------------||
 ||---------------||
 ||---2---5-2---2-||
 ||-0---0-----0---||
 ||---------------||

verse:
 
 ------------------------
 ------------------------
 ------------------------
 ---2-2--4-4--4-4-5--5-4-
 -0---0----0----0----0---
 ------------------------
 ----------------
 ---2h3-2--------
 ---2---2---2--4-
 -2-------3-3--6-
 -0-------0-0--0-
 ----------------

chorus:
[A] [D]  
 
 -------
 -------

[-6--7--]  
[-7--7--]-0--0--
 
 -------

Close your eyes and see water
sliding up the back of your head
folding into your clothing
covering everything you said
[A]Climb up i[D]nto
[A]Who's going to [D]miss you
Dry up on the shoreline
drinking everything you see
offering things to the ladies
bowing down in the mossen trees
[A]Climb up [D]into
[A]Nobody's going to [D]miss you
play open low E string at end

Important: The song above is NOT stored on the Chordie server. The original song is hosted at www.xguitar.com. Chordie works as a search engine and provides on-the-fly formatting. Chordie does not index songs against artists'/composers' will. To remove this song please click here.

Text color:
Chord color:
Chord grids: 
Font size:    
Page size: 

A D
Rate #3 of 3 versions

Jango Player

Login - add to songbook

SHARE PAGE  




You need to log in to post comments