Guitar Tabs, Chords and Lyrics
Major upgrade!! After one year development the new version of Chordie is now online! Please give feedback.


Another Lonely Day   Ben Harper

 
 e|------------------------------------------------|
 G|-----1--------1-------------0------------0------|
 B|-----0--------2-------------0------------0------|
 D|-------------------------2-----2-2p0------------|
 A|--3----3-2-0----0---0----2-----2-2p0--2-------2-|
 E|------------------3---3--0-----0-0----3-----3---|

 


 *When going to chorus the last note should be E(Open on the 6th string)


 


 Chorus:(F Am G)


 [(F)] [(Am)] [(G)]  

 
 e|----------------------------3-----0h3--3-|
 G|----1-----1-----1-----1-----3-----0h3--3-|
 B|----2-----2-----2-----2-----0----------0-|
 D|-3-----3-----2-----2-----0-----0-------0-|
 A|-0-----0-----0-----0-----2-----2-------2-|
 E|-------------------------3-----3-------3-|


Important: The song above is NOT stored on the Chordie server. The original song is hosted at www.xguitar.com. Chordie works as a search engine and provides on-the-fly formatting. Chordie does not index songs against artists'/composers' will. To remove this song please click here.

This song is displayed as text-only. Transposing and tuning is only available for chordpro-songs.
Rate #8 of 10 versions

Login - add to songbook

SHARE PAGE  



You need to log in to post comments