Guitar Tabs, Chords and Lyrics
Major upgrade!! After one year development the new version of Chordie is now online! Please give feedback.


Eyes Without a Face  Billy Idol

Eyes without a face - Billy Idol - transcribed by Gary Chapman
Key:
/\ = slide up/down
Verse 1: [Emaj7]I'm all out of [C#min]hope, one more bad [G#min]dream could bring a [Bmaj]fall.
[Emaj7]When I'm far from [C#min]home, don't call me on the [G#min]phone to tell me
you're [Bmaj]alone.
[Emaj7] [C#min] [G#min] [Bmaj] 
 
 E -----7------------4----------------4-------------------------7---------
 B -----9------------5----------------4-------------------------7---------
 G -----8------------6----------------4-------------------------8---------
 D -----9------------6----------------6-------------------------9---------
 A -----7------------4----------------6-------------------------9---------
 E -----------------------------------4-------------------------7---------

It's easy to deceive, it's easy to tease, but hard to get release.
Chorus:
[Amaj] [Bsus4] [F#min9] [Bsus4]  
 
 E --0----------------0-----------------------------0---------------------0--
 B --2----------------0-----------------------------5---------------------0--
 G --2----------------4-----------------------------2---------------------4--
 D --2----------------4-----------------------------4---------------------4--
 A --0----------------2---------------------------------------------------2--
 E --------------------------------------------------------------------------

Les yeux sans visage (eyes without a face) | face , got no human grace
Les yeux sans visage (eyes without a face) |
Les yeux sans visage, eyes without a |
Verse 2: same chords, but play the following natural harmonics throughout.
 
 E --<7>-----<12>----- I spend so much time believing all the lies to keep
 B -----<7>------<12>- the dream alive.
 G -------------------
 D ------------------- Now it makes me sad, it makes me mad at truth,
 A ------------------- for loving what was you.
 E -------------------

Bridge.
(w/distortion)
[E5] [Dmaj] [Amaj] 
 
 E --------------------------------------------------------------------------
 B -----------------------------------7-------7--7-5-------7---7-5------7-5--
 G -----------9--9--------9--9------9-7-------7--7-6-------7---7-6------7-6--
 D -----------9--9--------9--9------9-7-------7--7-7-------7---7-7------7-7--
 A -----------7--7--------7--7-----------5-5----------5-5----5--------5------
 E -16\--0-0---------0-0---------0-------------------------------------------

When you hear the music, you make a dip, into someone else's pocket
then make the slip. Steal a car and go to Las Vegas the gigolo pool.
I'm on a bus on a psychedelic trip reading murder books tryin' to
stay hip. I'm thinkin' of you and you're out there so... say your
prayers.
Enjoy!

Important: The song above is NOT stored on the Chordie server. The original song is hosted at www.xguitar.com. Chordie works as a search engine and provides on-the-fly formatting. Chordie does not index songs against artists'/composers' will. To remove this song please click here.

Text color:
Chord color:
Chord grids: 
Font size:    
Page size: 

Amaj Bmaj Bsus4 C#min Dmaj E5 Emaj7 G#min
Rate #1 of 8 versions

Login - add to songbook

SHARE PAGE  




You need to log in to post comments