Guitar Tabs, Chords and Lyrics
Login is temporarily disabled for some users. Do not panic. Will be back in an hour or two. DO NOT REREGISTER!!


River Below  Billy Talent

Intro
[G5]PM| PM PM PM [D5] [G5]PM| PM PM PM[D5]
[E] [E] [E] [E] [E] [E] [E] [E] [E] [E] [E] [E] [E] [E] [E] [E] [E] [E] [E] [E] [E] [E] [E] [E] [E] [E] [E] [E] [E] [E] [E] [E]  
 
 |-----------------|-----------------|-----------------|-----------------|
 |---------3-------|-4-3-1-----------|---------3-------|-4-3-1-----------|
 |-----3-------3---|-------3-2-0-----|-----3-------3---|-------3-2-0-----|
 |-5-5---5---5---5-|-------------3-1-|-0-0---5---5---5-|-------------3-1-|
 |-----------------|-----------------|-----------------|-----------------|
 |-----------------|-----------------|-----------------|-----------------|

Verse
| Q Q Q Q Q E E Q Q Q Q Q Q Q E E Q Q
 
 ||--------------|-----------3--|-------------|-----------3--|
 ||--------------|-----------4--|-------------|-----------4--|
 ||-----3--7--3--|----2-3-5-----|----3--7--3--|----2-3-5-----|
 ||-----5--5--5--|--------------|----5--5--5--|--------------|
 ||--------------|--------------|-------------|--------------|
 ||--------------|--------------|-------------|--------------|

| Q Q Q Q Q E E Q Q H Q E E E E E E E E E E
 
 |-------------|--------------|-------------|-------------------||
 |-------------|--------------|-------------|-------------------||
 |----3--7--3--|----2-0----2--|-------------|-------------------||
 |----5--5--5--|--------3-----|------3--3-3-|-7-7-7-7-7-7-7-7---||
 |-------------|--------------|-1----1--1-1-|-5-5-5-5-5-5-5-5---||
 |-------------|--------------|-------------|-------------------||

Pre-Chorus
[C]Q Q Q Q [Eb]Q Q Q Q [Bb]Q Q Q Q [D]Q Q Q Q
 
 |-------3-----|-------6-----|-------------|-------5------|
 |-------4-----|-------4-----|-------3-----|-------7------|
 |-------------|----3--------|-------3-----|----7---------|
 |----5--------|-------------|----3--------|-7--------7---|
 |-3--------3--|-6--------6--|-1--------1--|--------------|
 |-------------|-------------|-------------|--------------|

[C]Q Q Q Q [Eb]Q Q Q Q [Bb]Q Q Q Q [D]W
 
 |-------3-----|-------6-----|-------------|-----||
 |-------4-----|-------4-----|-------3-----|-----||
 |-------------|----3--------|-------3-----|-----||
 |----5--------|-------------|----3--------|-0---||
 |-3--------3--|-6--------6--|-1--------1--|-0---||
 |-------------|-------------|-------------|-0---||

Chorus
[G5] [D5] [Eb5] [Bb] 
[E] [E] [E] [E] [E] [E] [E] [E] [E] [E] [E] [E] [E] [E] [E] [E] [E] [E] [E] [E] [E] [E] [E] [E] [E] [E] [E] [E] [E] [E] [E] [E]  
 
 ||------------------|-----------------|-----------------|-x---------------|
 ||--x---------------|-x---------------|-x---------------|-x---------------|
 ||--x---------------|-x---------------|-x---------------|-x---------------|
 ||--x-5-5-5-5-5-5-5-|-x-0-0-0-0-0-0-0-|-x-1-1-1-1-1-1-1-|-x-3-3-3-3-3-3-3-|
 ||--x-5-5-5-5-5-5-5-|-x-0-0-0-0-0-0-0-|-x-1-1-1-1-1-1-1-|-x-1-1-1-1-1-1-1-|
 ||--x-5-5-5-5-5-5-5-|-x-0-0-0-0-0-0-0-|-x-1-1-1-1-1-1-1-|-----------------|

[C5]Q Q Q Q [G5]Q Q Q Q [D5]Q Q Q Q [Eb5]Q Q Q Q
 
 |-------------|-------------|-------------|---------------||
 |-------------|-------------|-------------|---------------||
 |-5--5--5--5--|-------------|-------------|---------------||
 |-5--5--5--5--|-5--5--5--5--|-0--0--0--0--|-1--1--1--1----||
 |-3--3--3--3--|-5--5--5--5--|-0--0--0--0--|-1--1--1--1----||
 |-------------|-5--5--5--5--|-0--0--0--0--|-1--1--1--1----||

*During the second and third time the chorus comes in the song, this second line is repeated
more than once so just listen to the recording*
Interlude
[G5]PM| PM PM PM [D] [G5]PM| PM PM PM[D]
E E E E E E E E W 3x E E E E E E E E Q E E E E E E
 
 ||------------------|-----------||-----------------|----------------|
 ||o---------3-------|----------o||---------3-------|----------------|
 ||------3-------3---|-----------||-----3-------3---|----------------|
 ||--5-5---5---5---5-|-----------||-5-5---5---5---5-|----7-7-7-7-7-7-|
 ||o-----------------|-0--------o||-----------------|-0--5-5-5-5-5-5-|
 ||------------------|-0---------||-----------------|-0--------------|

Outro
[G5]PM| PM PM PM[D5]
[E] [E] [E] [E] [E] [E] [E] [E] [E] [E] [E] [E] [E] [E] [E] [E]  
 
 |-----------------|-----------------||
 |---------3-------|-4-3-1-----------||
 |-----3-------3---|-------3-2-0-----||
 |-5-5---5---5---5-|-------------3-1-||
 |-----------------|-----------------||
 |-----------------|-----------------||

Intro
Verse(2x)
Pre-Chorus
Chorus (2x)
Intro
Verse(2x)
Pre-Chorus
Chorus (2x)
Interlude
Chorus (2x)
Outro
Notation:
========================
W = Whole Note
H = Half Note
Q = Quarter Note
E = Eighth Note
========================

Important: The song above is NOT stored on the Chordie server. The original song is hosted at www.xguitar.com. Chordie works as a search engine and provides on-the-fly formatting. Chordie does not index songs against artists'/composers' will. To remove this song please click here.

Text color:
Chord color:
Chord grids: 
Font size:    
Page size: 

Bb C C5 D D5 E Eb Eb5 G5
Rate #1 of 3 versions

Jango Player

Login - add to songbook

SHARE PAGE  




You need to log in to post comments