Guitar Tabs, Chords and Lyrics
Major upgrade!! After one year development the new version of Chordie is now online! Please give feedback.


Lickinâ??   The Black Crowes

 
 D------------------------------------------------------------------------
 A-----------0--1--2---------------------0--1--2--2h3--2b--0--0--2-------- 6 times
 E--0--1--2----------0--0--2----0--1--2-----------------------------2--2--

 


 


 Chorus


 

 
 D-----------------------
 A----------------------- 7 times
 E--2--4--4--4--4--4--4--

 


 


 [D-----]  


 [A-----]  


 [E--2--]  


 Verse (2 measures)


 Chrous (8 times for the second chorus)


 


 Solo


 

 
 D---------------------------------------------
 A--------------------------------------------- 4 times
 E--10--8--8--8--8--8--8--6--4--4--4--4--4--4--
 e----------------------------------------
 G----------------------------------------
 B--12--10--10--12--12--10--10--10--8--6-- 4 times
 D--12--10--10--12--12--10--10--10--8--6--
 A--10---8---8--10--10---8---8---8--6--4--
 E----------------------------------------

 


 


 Verse (2 measures)


 Chorus (2 times)


 


 Verse (2 times)(w/out lyrics)


 


 Ending


 

 
 D--------------------------------------------
 A-------------------------------------------- 2 times
 E--3--2--1--3--2--1--3--2--1--x--x--x--x--x--


Important: The song above is NOT stored on the Chordie server. The original song is hosted at www.xguitar.com. Chordie works as a search engine and provides on-the-fly formatting. Chordie does not index songs against artists'/composers' will. To remove this song please click here.

This song is displayed as text-only. Transposing and tuning is only available for chordpro-songs.
Rate #1 of 1 versions

Jango Player

Login - add to songbook

SHARE PAGE  




You need to log in to post comments