Guitar Tabs, Chords and Lyrics
Major upgrade!! After one year development the new version of Chordie is now online! Please give feedback.


Hard to Handle  The Black Crowes

Hard To Handle By The Black Crowes
x 2 4 4 4 x B
x x x 4 5 x Bsus4
2 4 4 x x x F#5
0 2 2 x x x E5
x 2 4 x x x B5
x x 3 3 3 x Bb/F
x x x 4 5 4 E/B
Gtr I (D G D G B D) - 'Rich Robinson overdrive electric'
Gtr II (E A D G B E) - 'Jeff Cease overdrive electric'
Gtr III (E A D G B E) - 'Lead dist. electric'
Intro
Q=102
[4/4] Gtr I
W H E S S S E S +H +E S S S E S
 
 |----------|------------------|----------------------|
 |----------|------------------|----------------------|
 |----------|------------------|----------------------|
 |----------|------------1-2-4-|-(4)----(4)-2-0-2-0---|
 |----------|--------4-4-------|--------------------4-|
 |----------|------------------|----------------------|

+H +E S S S E S +H +E S S S S E
 
 |----------------------|-------------------------||
 |----------------------|-------------------------||
 |----------------------|-------------------------||
 |----------------1-2-4-|-(4)----(4)-2-0-2-0------||
 |-(4)----(4)-4-4-------|-------------------------||
 |----------------------|-------------------------||

Verse 1
[B]Gtr II[Bsus4] [B] [Bsus4]
E E E E S S E S E S Q E S S +S S E S S S S
| | | | | | | | | | | | | | | | | | |
/ / / x x / x / / / x x x x / x / x x
PM| PM--| PM|
E S S E S S S S S S S S S S E E E S S S S S S S S S S
 
 |-----------------------------|----------------------------|
 |-----------------------------|----------------------------|
 |-4-4-4-4-4-4-4-4-x-7---6-x-x-|-4-4-4-x-4----x-x-7---6-4-4-|
 |-4-4-4-6-4-4-4-4-x-7---6-x-x-|-4-4-6-x-4----x-x-7---6-4-4-|
 |-----------------------------|----------------------------|
 |-----------------------------|----------------------------|

|Rhy Fig 1
[B]Q E S S +S S E S [Bsus4]S S S [B]Q E E E E [Bsus4]S E S
| | | | | | | | | | | | | | | | |
/ / x x x x / x / x x / / / / / x
PM| PM-----| PM|
E S S E S S S E S S S E E S S E S S S S S S S E S
 
 |------------------------------|----------------------------|
 |------------------------------|----------------------------|
 |-4-4-4-4-4-4--4-4---7---6-----|-4-4-4-4-4-4---x-x-7---7\-4-|
 |-4-4-4-6-4-4--4-4---7---6-x---|-4-4-4-6-4-4---x-x-7---7\-4-|
 |------------------------------|----------------------------|
 |------------------------------|----------------------------|

[B]Q E E E E S [Bsus4]S S S [B]E E E E E E S [Bsus4]E S
| | | | | | | | | | | | |
/ / / / x x / / x / / / x
PM
E E E S S +S E S S S E E S S E S S S S S S S E S
 
 |-----------------------------|-----------------------------|
 |-----------------------------|-----------------------------|
 |-4-4-4-4-4-(4)-4---4---4-2---|-4-4-4-4-4-4-4-4-x-7---6\-4--|
 |-4-4-6-4-4-(4)-4---4---4-2---|-4-4-4-6-4-4-4-4-x-7---6\-4--|
 |-----------------------------|-----------------------------|
 |-----------------------------|-----------------------------|

[B]Q E E E E S [Bsus4]S E [B]Q +E S S +Q. +E
| | | | | | | | | |
/ / / / / / x / / /
PM
E E E S S S S E S S E E S S S S S S +S S S S S S E
 
 |-----------------------|---------------------------------||
 |-----------------------|--------------------4-4-4-4-4--4-||
 |-4-7-6-4-4---x-2---6p4-|-4-4-4--x-x-x-4-(4)-4-4-4-4-4--4-||
 |-4-7-6-4-4---x-2---6p4-|-4-4-4--x-x-x-4-(4)-4-4-4-4-4--4-||
 |-----------------------|---------------------------------||
 |-----------------------|---------------------------------||

end Rhy Fig 1-|
Chorus
[F#5] Q E S S +E E E S S E E E S S E E E E
| | | | | | | | | | | | | | | | | |
[/] [/] [/] [/] [/] [/] [/] [/] [/] [/] [/] [/] [/] [/] [/] [/] [/] [/] 
|3-|
E E E. S E S E E S S E E E. S E E Q
 
 |-------------------------11-------|--------------------------|
 |----10-10----10-10----11--9-------|---------------10---------|
 |-----9--9-----9--9----11----11-11-|-11-9-11----11--9-11-11---|
 |-11----11----11-11-11-11----11-11-|-11-9-11----11-11-11-11---|
 |-11----11----11-11----11----11-11-|-11---11----11-11-11-11---|
 |----------------------------------|--------------------------|

[B]E E Q H W
|
[/]  
E E Q H W
 
 |-------------|------|
 |-------------|------|
 |-4-----------|------|
 |-4-----------|------|
 |-4-----------|------|
 |-------------|------|

Gtr I
E S S E S S E S S E E E S S E S S +Q Q
 
 |-----------------------------------|-------------------------------||
 |--7--7-7-7--7S=9--9-----9--9--9----|--2-x--9-0--x-4--(4)--x\-------||
 |--7--7-7-7--7S=9--9-----9--9--9----|--2-x--9----x-4--(4)--x\-------||
 |--7--7-7-7--7S=9--9-----9--9--9--x-|--2-x--9----x-4--(4)--x\-------||
 |--7--7-7-7--7S=9--9-----9--9--9----|--2-x--9------4--(4)--x\-------||
 |-----------------------------------|-------------------------------||

|
| Gtr II
| Q. S S S S S S Q E. S E E +Q. +E
 
 |-----------------------------------|-------------------------------||
 |-19--------19-19-19S21-21-21-21\---|-14S==21---16---(16)-----(16)\-||
 |-19--------19-19-19S21-21-21-21\---|-14S==21---16---(16)-----(16)\-||
 |-19--------19-19-19S21-21-21-21\---|-14S==21---16---(16)-----(16)\-||
 |-----------------------------------|-------------------------------||
 |-----------------------------------|-------------------------------||

Verse 2
[B]Gtr II[Bsus4] [B] [Bsus4]
Q E E E E S S S S Q E E E E S S S S
| | | | | | | | | | | | | |
/ / / x / x x / / / x / x x
Gtr I
E S S S E S S S S S S S S S E E E S S S S S S S S S S
 
 |-------------------------------|---------------------------|
 |-------------------------------|---------------------------|
 |-4-4-4-4-x---4---x-x-7---6-4-4-|-4-4-4-x-4---7-x-7---4-6-4-|
 |-4-4-4-6-x---4---x-x-7---6-4-4-|-4-4-6-x-4---7-x-7---4-6-4-|
 |-------------------------------|---------------------------|
 |-------------------------------|---------------------------|

[B]Q E E E E S [Bsus4]S S S [B]Q E E E E S [Bsus4]E.
| | | | | | | | | | |
/ / / x / x x / / / /
E S S E S S S S S S S S S S E S S E S S S S S S +S S E
 
 |-----------------------------|------------------------------|
 |-----------------------3h4---|------------------------------|
 |-4-4-4-4-x-4---4-x-x-x-4---4-|-4-4-4-4-x-4---4---7-(7)s6----|
 |-4-4-4-6-x-4---4-x-x-x-----4-|-4-6-4-6-x-4---4---7-(7)s6----|
 |-----------------------------|------------------------------|
 |-----------------------------|------------------------------|

[B]E E E S S +S S E S [Bsus4]E S [B]Q E E E E [Bsus4]S E S
| | | | | | | | | | | | | | | |
/ / / x / x / / / / / / / / / x
E S S S S S S S S S S E S S E S S S S S S S E S S E S
 
 |--------------------------------|-----------------------------|
 |--------------------------------|-----------------------------|
 |-4-4-4-4-4-4-4--4-4-x-4-2s==4-4-|-4-4-4-4-4-4-4-2-4---7---6---|
 |-4-4-4-6-4-4-4--4-4-x-4-2s==4-4-|-4-4-4-6-4-4-4-2-4---7---6---|
 |--------------------------------|-----------------------------|
 |--------------------------------|-----------------------------|

[B]Q E E E E S [Bsus4]E S [B]Q E S S +Q. S S
| | | | | | | | | | | | |
/ / / x / x / / x / / / /
E E E S S S S S S S S E E S S E S S +E S S S S S S
 
 |---------------------------|------------------------------||
 |---------------------------|-----------4-(4)---4-4-4-4-4--||
 |-4-4-4-x-4-x-4-x-7---6-4---|-4-4-4-4-x-4-(4)-4-4-4-4-4-4--||
 |-4-4-6-x-4-x-4-x-7---6-4---|-4-4-4-6-x-4-(4)-4-4-4-4-4-4--||
 |---------------------------|------------------------------||
 |---------------------------|------------------------------||

Chorus
[F#5] Q E. S +E E E S S E E E S S E E E E
| | | | | | | | | | | | | | | | |
[/] [/] [/] [/] [/] [/] [/] [/] [/] [/] [/] [/] [/] [/] [/] [/] [/] 
E E E S S +E S S E S S E E S S S S E E E S S
 
 |------------------------------------|-------------------------------|
 |----10-10--x-11-(11)----------------|---------------------------x-x-|
 |-----9--9--x-11-(11)-11-11-11-11-11-|-11---11-11-11-11-11-11-11-x-x-|
 |-11----11--x-11-(11)-11-11-11-11-11-|-11---11-11-11-11-11-11-11-x-x-|
 |-11----11--x-11-(11)-11-11-11-11-11-|-11---11-11-11-11-11-11-11-----|
 |------------------------------------|-------------------------------|

[B]E E Q H W
|
[/]  
E E Q H W
 
 |-------------|------|
 |-------------|------|
 |-4-----------|------|
 |-4-----------|------|
 |-4-----------|------|
 |-------------|------|

Gtr I
E S S S S E S E. +E S S E S S +S S E S E. +E E
 
 |---------------------------------|-------------------------------------|
 |--2--2--9-0-x--4---4--4--(4)-x-x-|--2--x--9-(9)-x--4---2--4--(4)-------|
 |--2--2--9---x--4---4--4--(4)-x-x-|--2--x--9-(9)-x--4---2--4--(4)-------|
 |--2--2--9---x--4---4--4--(4)-x-x-|--2--x--9-(9)-x--4---2--4--(4)-------|
 |--2--2--9---x--4---4--4--(4)-x-x-|--2--x--9-(9)-x--4---2--4--(4)-------|
 |---------------------------------|-------------------------------------|

|
| Gtr II
| E. S E E +Q Q E. S S S E +Q. +E
 
 |---------------------------------|-------------------------------------|
 |-14----21-----16-(16)----16\-----|-14----21-----x-16-(16)--------(16)\-|
 |-14----21-----16-(16)----16\-----|-14----21-----x-16-(16)--------(16)\-|
 |-14----21-----16-(16)----16\-----|-14----21-----x-16-(16)--------(16)\-|
 |---------------------------------|-------------------------------------|
 |---------------------------------|-------------------------------------|

E S S +S S E E Q. E S S +S S E +Q S S S S
 
 |----------------------------------|-------------------------------------||
 |--2-----9-(9)-x--4---4--4\--------|--2--x--9-(9)-x--4--(4)--------------||
 |--2-----9-(9)-x--4---4--4\--------|--2--x--9-(9)-x--4--(4)--2-2---2---2-||
 |--2-----9-(9)-x--4---4--4\--------|--2--x--9-(9)-x--4--(4)--2-2---2---2-||
 |--2-----9-(9)-x--4---4--4\--------|--2--x--9-(9)-x--4--(4)--------------||
 |----------------------------------|-------------------------------------||

|
| E. S E E +Q. +E E. S E E +Q. +E
 
 |----------------------------------|-------------------------------------||
 |-14----21-------16-(16)-----(16)\-|-14----21-------16-(16)------(16)\---||
 |-14----21-------16-(16)-----(16)\-|-14----21-------16-(16)------(16)\---||
 |-14----21-------16-(16)-----(16)\-|-14----21-------16-(16)------(16)\---||
 |----------------------------------|-------------------------------------||
 |----------------------------------|-------------------------------------||

Verse 3
Gtr I plays Rhy Fig 1
Gtr II
[B]Q E S S S S E S [Bsus4]E S [B]E E E. S S S E S [Bsus4]E S
| | | | | | | | | | | | | | | |
/ / / x / / x / / / x / / x / x
 
 |-----------------------------|----------------------------|

[B]Q E E E E [Bsus4]S E S [B]Q E E S S E S [Bsus4]E S
| | | | | | | | | | | |
/ / / / / x / / x / / x
 
 |-----------------------------|----------------------------|

[B]E E E E E E S [Bsus4]S S S [B]Q E E E E S [Bsus4]E S
| | | | | | | | | |
/ / / / / x / / / /
 
 |-----------------------------|-----------------------------|

[B]E E E E E E S [Bsus4]E S [B]Q E S S +Q. +E
| | | | | | | | | | | |
/ / / / / x / / x / / /
 
 |-------------------------|---------------------------------||

Chorus
[F#5] Q E S S +E E E S S E [E5] E [F#5] E S S S S E S S E
| | | | | | | | | | | | | | | | | | | |
[/] [/] [/] [/] [/] [/] [/] [/] [/] [/] [/] [/] [/] [/] [/] [/] [/] [/] [/] [/] 
E E E S S S S E E S S E E E. S E E Q
 
 |----------------------------------|-------------------------------|
 |----10-11-11-12----11-11-11-11----|----10-11----11-11---11-x\-----|
 |-----9-11-11-11----11-11-11-11----|-----9-11----11-11---11-x\-----|
 |-11----11-11-11----11-11-11-11h13-|-11----11----11-11---11-x\-----|
 |-11----11-11-11----11-11-11-11----|-11----11----11-11---11-x\-----|
 |----------------------------------|-------------------------------|

[B]E E Q H W
|
[/]  
E E Q H W
 
 |-------------|------|
 |-------------|------|
 |-4-----------|------|
 |-4-----------|------|
 |-4-----------|------|
 |-------------|------|

Gtr I
E S S S S E +E E Q E S S S S E +E E Q
 
 |---------------------------------|---------------------------------|
 |--2--x--9-0-x--4--(4)-4-4\-------|--2--x--9-0-x--4--(4)-4-4\-------|
 |--2--x--9---x--4--(4)-4-4\-------|--2--x--9---x--4--(4)-4-4\-------|
 |--2--x--9---x--4--(4)-4-4\-------|--2--x--9---x--4--(4)-4-4\-------|
 |--2--x--9---x--4--(4)-4-4\-------|--2--x--9---x--4--(4)-4-4\-------|
 |---------------------------------|---------------------------------|

|-Riff 1 end Riff 1-|
|
| Gtr II
| E. S S S E +Q. +E E. S S S E +Q. +E
 
 |---------------------------------|---------------------------------|
 |-14----21---x-16-(16)------(16)\-|-14----21---x-16-(16)------(16)\-|
 |-14----21---x-16-(16)------(16)\-|-14----21---x-16-(16)------(16)\-|
 |-14----21---x-16-(16)------(16)\-|-14----21---x-16-(16)------(16)\-|
 |---------------------------------|---------------------------------|
 |---------------------------------|---------------------------------|

|Riff 2
E S S S S E +E E Q E S S S S E +E E Q
 
 |-----------------------------|---------------------------------||
 |--2--x--9-0-x--4--(4)-4--4\--|--2--x--9-0-x--4--(4)-4--4\------||
 |--2--x--9---x--4--(4)-4--4\--|--2--x--9---x--4--(4)-4--4\------||
 |--2--x--9---x--4--(4)-4--4\--|--2--x--9---x--4--(4)-4--4\------||
 |--2--x--9---x--4--(4)-4--4\--|--2--x--9---x--4--(4)-4--4\------||
 |-----------------------------|---------------------------------||

|
| E. S E E +Q Q E. S E E +Q Q
 
 |-----------------------------|---------------------------------||
 |-14----21-----16-(16)---16\--|-14----21-----16-(16)---16\------||
 |-14----21-----16-(16)---16\--|-14----21-----16-(16)---16\------||
 |-14----21-----16-(16)---16\--|-14----21-----16-(16)---16\------||
 |-----------------------------|---------------------------------||
 |-----------------------------|---------------------------------||

| end Riff 2-|
|Gtr III
| W H Q Q
 
 |-----------------------------|---------------------------------||
 |-----------------------------|-------------------------9b10----||
 |-----------------------------|---------------------------------||
 |-----------------------------|---------------------------------||
 |-----------------------------|---------------------------------||
 |-----------------------------|---------------------------------||

Guitar Solo
Gtr I plays Rhy Fig 1
Gtr II
[B]E E E E E E S [Bsus4]S E
| | | | | |
/ / / / x /
Gtr III
Q Q S +S S S S S +S S
 
 |------------------------------------------|
 |-9b10---9b10---9pb10r(9)-7---7------------|
 |---------------------------9---9b10r(9)p7-|
 |------------------------------------------|
 |------------------------------------------|
 |------------------------------------------|

[B]E E E E E E S [Bsus4]E S
| | | | |
[/] [/] [/] [/] [/]  
~~~~~~
|--3--|
S S S S S S E +Q E S E
 
 |------------------------------------|
 |------------------------------------|
 |-9---7h8----------------------------|
 |---9-----9-9-9-(9)---7\-------/6----|
 |------------------------------------|
 |--------------------------(0)-------|

[B] Q E E E E [Bsus4] E E
| | | |
[/] [/] [/] [/] 
~~
S S S S S S S S S E. +S S E
 
 |--------------------------------------------|
 |--------------------------------------------|
 |-------------[7]-7b7.5----------------------|
 |-[9]-[9]-[9]-----------9-7-9---9----(9)-5h6-|
 |--------------------------------------------|
 |--------------------------------------------|

[B] [Bsus4] [B] [B5] [E/B]  
 
 |---3----|

E E E E E E S E S Q E E E S E S S E
| | | | | | | | | | | | |
/ / / / / / / / / x / / /
~~~~~~ ~~~~~
S S e S S S S +Q E E +Q S E S +S E. +E E
 
 |------------------------------------|----------------------------------------------|
 |----------------------------9b10====|=(10)--9p7---10b12-(12)-10b12-----(12)\-------|
 |-4-(0)-7-6p4---4-(4)----------------|------------------------------------------/13-|
 |-------------6---------x\-----------|----------------------------------------------|
 |-----------------------x\-----------|----------------------------------------------|
 |------------------------------------|----------------------------------------------|

[B] S E. E S S E E [Bsus4]E E
| | | | | | |
/ / / x x / /
~~~~~~~
S S S S S S S S +Q E E
 
 |--------------------------------------------|
 |-12-14p12----[15]p12----12-(12)------17b19==|
 |----------13---------14-----------x\--------|
 |----------------------------------x\--------|
 |--------------------------------------------|
 |--------------------------------------------|

[B] Q E E E E S [Bsus4]E S [B] S S E S E S +Q. +E
| | | | | | | | | | | |
/ / / / x / / / / / / /
~~~~~~~~~~~
 
 |---3----|

+Q E E. S E E Q S S E S +S S S +Q. +E
 
 |-------17-------17-----17------------|-17----17------------17b19==(19)---(19)\--||
 |-(19)-----17-------17r----17b19======|====17----17r(17)p15----------------------||
 |-------------------------------------|------------------------------------------||
 |-------------------------------------|------------------------------------------||
 |-------------------------------------|------------------------------------------||
 |-------------------------------------|------------------------------------------||

Chorus
[F#5]Gtr II
Q E. S +E Q S S E E E S S E E Q
| | | | | | | | | | | | | | |
[/] [/] [/] [/] [/] [/] [/] [/] [/] [/] [/] [/] [/] [/] [/] 
Gtr I
E S S E S S +E E E E E E E S S E S S E E
 
 |------------------------------------|-------------------------------|
 |----10-10-11--11-11-(11)-11-11-11---|-10-11-11-11-11-11-11-11-11-11-|
 |-----9--9-11--11-11-(11)-11-11-11---|--9-11-11-11-11-11-11-11-11-11-|
 |-11-------11--11-11-(11)-11-11-11---|----11-11-11-11-11-11-11-11-11-|
 |-11-------11--11-11-(11)-11-11-11---|----11-11-11-11-11-11-11-11-11-|
 |------------------------------------|-------------------------------|

[B]E E Q H W
|
[/]  
E E Q H W
 
 |-------------|------|
 |-------------|------|
 |-4-----------|------|
 |-4-----------|------|
 |-4-----------|------|
 |-------------|------|

Riff 1 x2 & Riff 2
Gtr III (enters on final bar of above Riffs)
W H Q a a a Q
 
 |-----------------------------|---------------------------------17-------||
 |-----------------------------|-------------------------------x-17b19----||
 |-----------------------------|----------------------------x-------------||
 |-----------------------------|-------------------------x----------------||
 |-----------------------------|------------------------------------------||
 |-----------------------------|------------------------------------------||

Outro Solo
Gtr I plays Rhy Fig 1
Gtr II
[B] Q E E E E S S [BsusB]E Q E E E E S [Bsus4]S S S
| | | | | | | | | | |
/ / / x / / / / / x x
Gtr III
 
 |---3---| |----3----|

+Q H Q +Q Q E E E E E E
 
 |-(17)--17----------17--------|-(17)--17-------17------17------17--------|
 |-(17)--17b19-------17b19-----|-(17)--17b19=======17------17--------17---|
 |-----------------------------|------------------------------------------|
 |-----------------------------|------------------------------------------|
 |-----------------------------|------------------------------------------|
 |-----------------------------|------------------------------------------|

[B] Q E E E E S [Bsus4] S S S
| | | | | |
/ / / / / x
|--3--| |3-|
E E E E Q S +E S S S S S
 
 |-17----17-17-17-----------------------------|
 |----17-------17---17r(17)p==15-17-15-15-----|
 |----------------------------------------16--|
 |--------------------------------------------|
 |--------------------------------------------|
 |--------------------------------------------|

[B] Q E E E E S [Bsus4]E S
| | | |
[/] [/] [/] [/] 
~~~~ ~~~
 
 |-----6-----|

+E S S S S S E S Q E E
 
 |-----------------------------------------|
 |-----------------------------------------|
 |-(16)-16-----------------------------0---|
 |------16p14-14p12h14-14-12-----------0---|
 |---------------------------14s==17-------|
 |-----------------------------------------|

[B] Q E E S S E E [Bsus4] E
| | | | | |
/ / x x / /
S S S S S S S S S S S S S T T S S
 
 |-------16-------16-------16-------16----------------|
 |-14h15----14h15----14h15----14h15----15p14s12----12-|
 |----------------------------------------------13----|
 |----------------------------------------------------|
 |----------------------------------------------------|
 |----------------------------------------------------|

[B] Q E S S S E S S [Bsus4]S E
| | | | | | |
/ / x / / / /
~~~ ~~
S S S S S S S S S S S. T E E
 
 |-------16-------16-------16-----------------x-|
 |-14h15----14h15----14h15----15p14----x-12---x-|
 |----------------------------------------------|
 |----------------------------------------------|
 |----------------------------------------------|
 |----------------------------------------------|

[B] Q E E E E S [Bsus4] E S [B] Q E E H
| | | | | |
[/] [/] [/] [/] [/] [/] 
~~ ~~~~~~~
Q Q S +S S S S S S S E S S S S S S +Q +E E
 
 |-17b19--17---16pb17r(16)p14----14----------|---------------------------------------|
 |--------17------------------17----15p14-12-|---------------------------------------|
 |-------------------------------------------|-14-11---------------------------------|
 |-------------------------------------------|-------15-14-12-------------------(0)--|
 |-------------------------------------------|----------------14-14-(14)--(14)\------|
 |-------------------------------------------|---------------------------------------|

w/Riff 1 (x3.5) & Riif 2 (1st 3 bars)
~~~~~~~
S +S T T S +S S E +Q. +E
 
 |--------------------------------------------|
 |--9b10r=(9)---------------------------------|
 |--9b9.5r(9)-9p7h=9-(9)-7--------------------|
 |--------------------------9--(9)-------(9)\-|
 |--------------------------------------------|
 |--------------------------------------------|

~~~~~~~~~~ ~~~~~~~
|-3-|
S +S S S E S E +Q +S S E S +S S S +S S E +Q. S S
 
 |-------------------------------------------------|------------------------------------------|
 |--9b10r=(9)----9-------10b12-(12)---(12)---------|--9b10r=(9)----9-(9)----------------------|
 |--9b9.5r(9)-7--9-----0-------------------0---0---|--9b9.5r(9)-7--9-(9)-7---------------x-x--|
 |-----------------------------------------0---0---|------------------------9--(9)-------x-x--|
 |-------------------------------------------------|------------------------------------------|
 |-------------------------------------------------|------------------------------------------|

E S S +E S S +H
 
 |----------------------------------------|
 |--2---------x--9-(9)----x-----4--(4)----|
 |--2---------x--9-(9)----x-----4--(4)----|
 |--2---------x--9-(9)----x-----4--(4)----|
 |--2---------x--9-(9)----x-----4--(4)----|
 |----------------------------------------|

|
| E. S S S E +H
 
 |----------------------------------------|
 |-14-----------21-----x-16-------(16)----|
 |-14-----------21-----x-16-------(16)----|
 |-14-----------21-----x-16-------(16)----|
 |----------------------------------------|
 |----------------------------------------|

|
| ~~~~~~~
| S +S S S S S E +H
 
 |----------------------------------------|
 |--9b10r=(9)------------10b12====(12)----|
 |--9b9.5r(9)p7--------0------------------|
 |---------------9--7--0------------------|
 |----------------------------------------|
 |----------------------------------------|

+W W
 
 |-------------:------------------------*|
 |--(4)--------:------------------------*|
 |--(4)--------:------------------------*|
 |--(4)--------:------------------------*|
 |--(4)--------:------------------------*|
 |-------------:------------------------*|

|
| +W W
 
 |-------------:------------------------*|
 |-(16)--------:------------------------*|
 |-(16)--------:------------------------*|
 |-(16)--------:------------------------*|
 |-------------:------------------------*|
 |-------------:------------------------*|

|
|~~~~~~~~~~~~~~~~~~~~
| +W +Q +E a E H
 
 |-------------:------------------------*|
 |-(10)--------:-(10)--(10)\------------*|
 |-------------:-------------!x---------*|
 |-------------:----------------/x------*|
 |-------------:------------------------*|
 |-------------:------------------------*|


Important: The song above is NOT stored on the Chordie server. The original song is hosted at www.xguitar.com. Chordie works as a search engine and provides on-the-fly formatting. Chordie does not index songs against artists'/composers' will. To remove this song please click here.

Text color:
Chord color:
Chord grids: 
Font size:    
Page size: 

B B5 Bsus4 E/B E5 F#5
Rate #4 of 8 versions

Login - add to songbook

SHARE PAGE  




You need to log in to post comments