Guitar Tabs, Chords and Lyrics
Major upgrade!! After one year development the new version of Chordie is now online! Please give feedback.


Suffering Overdue   Black Label Society

 
 |--------------------|--------------------|-------------------|---------------|
 |--------------------|--------------------|-------------------|---------------|
 |--------------------|--------------------|-------------------|---------------|
 |--------------------|--------------------|-------------------|---------------|
 |--------------------|--------------------|-------------------|---------------|
 |-0--/12--[10]~~~5-3-|-/6--5-3-5-[3]~~~~~~|-0--/12--[10]~~5-3-|-/6--5-3-[5]~~~|

 


 


 ~~~~ ~~~~~~~ ~~~~


 

 
 |--------------------|--------------------|-------------------|------------|
 |--------------------|--------------------|-------------------|------------|
 |--------------------|--------------------|-------------------|-10----9----|
 |--------------------|--------------------|-------------------|-10----9----|
 |--------------------|--------------------|-------------------|--8----7----|
 |-0--/12--[10]~~~5-3-|-/6--5-3-5-[3]~~~~~~|-0--/12--[10]~~5-3-|------------|

 


 


 Verse Riff (2 times w/o lyrics)


 2x


 

 
 ||------------------|---------------|-----------------|---------------||
 ||o-----------------|---------------|-----------------|--------------o||
 ||------------------|--------7---9--|-----------------|----------5----||
 ||--4-(4)----4------|-4------7---9--|-4-(4)----4------|-4--------5----||
 ||o-0h=2-----2------|-2------5---7--|-0h=2-----2------|-2--------3---o||

 


 


 Vocals Enter (verse continued) 4x


 

 
 ||------------------|-----------------|-----------------|---------------||
 ||o-----------------|-----------------|-----------------|--------------o||
 ||------------------|-----------------|-----------------|---------------||
 ||--4-(4)----4------|-4---------------|-4-(4)----4------|-4-------------||
 ||o-0h=2-----2------|-2------5-----7--|-0h=2-----2------|-2--------3---o||

 


 


 Chorus


 ~~~~ ~~~~~~~ ~~~~ ~~~


 

 
 |--------------------|--------------------|-------------------|----------------|
 |--------------------|--------------------|-------------------|----------------|
 |--------------------|--------------------|-------------------|----------------|
 |--------------------|--------------------|-------------------|----------------|
 |--------------------|--------------------|-------------------|----------------|
 |-0--/12--[10]~~~5-3-|-/6--5-3-5-[3]~~~~~ |-0--/12--[10]~~5-3-|-/6--5-3-[5]~~~~|

 


 


 ~~~~ ~~~~~~~ ~~~~


 

 
 |--------------------|--------------------|-------------------|------------||
 |--------------------|--------------------|-------------------|------------||
 |--------------------|--------------------|-------------------|-10----9----||
 |--------------------|--------------------|-------------------|-10----9----||
 |--------------------|--------------------|-------------------|--8----7----||
 |-0--/12--[10]~~~5-3-|-/6--5-3-5-[3]~~~~~~|-0--/12--[10]~~5-3-|------------||

 


 


 Clean Part (no swing feel...straight time)


 


 

 
 ||----------------|------------------|---------------|---------------------||
 ||o---------------|------------------|---------------|--------------------o||
 ||---------0------|----------0-------|--------2------|-----------2---2-----||
 ||-----4-----4----|------4-----4-----|----4-----4----|-----2---2---2---2---||
 ||o-2----2-----2--|-(2)----2-----2-4-|-5----5-----4--|-(4)---4------------o||
 ||----------------|------------------|---------------|---------------------||

 


 


 Vocals Enter


 

 
 ||----------------|------------------|---------------|--------------------||
 ||o---------------|------------------|---------------|-------------------o||
 ||---------0------|----------0-------|--------2------|----------2---2-----||
 ||-----4-----4----|------4-----4-----|----4-----4----|------2-----2---2---||
 ||o-2----2-----2--|-(2)----2-----2-4-|-5----5-----4--|-(4)----4----------o||
 ||----------------|------------------|---------------|--------------------||
 |---------------|------------------|---------------|------------------||
 |---------------|------------------|---------------|------------------||
 |--------2------|----------2---2---|--------2------|----------2---2---||
 |----4-----4----|------2-----2---2-|----4-----4----|------2-----2---2-||
 |-5----5-----4--|-(4)----4---------|-5----5-----4--|-(4)----4---------||
 |---------------|------------------|---------------|------------------||

 


 


 Pre Solo Riff


 (Back to Triplet Feel)


 


 

 
 PM---| PM--| PM--------------|
 |-----------------------|------------------------|
 |-----------------------|------------------------|
 |-----------------------|------------------------|
 |-----------------------|------------------------|
 |-----------------------|------------------------|
 |-0--0-0-0-0-0--0-0-0-0-|-0--0-0-0-0-0-3-5-6-5-3-|
 PM---| PM------------------------------------|
 |-----------------------|--------------------------------|
 |-----------------------|--------------------------------|
 |-----------------------|--------------------------------|
 |-----------------------|--------------------------------|
 |-----------------------|--------------------------------|
 |-0--0-0-0-0-0--0-0-0-0-|-0-10-12-0-12-14-0-10-12-0-5-7--|


Important: The song above is NOT stored on the Chordie server. The original song is hosted at www.xguitar.com. Chordie works as a search engine and provides on-the-fly formatting. Chordie does not index songs against artists'/composers' will. To remove this song please click here.

This song is displayed as text-only. Transposing and tuning is only available for chordpro-songs.
Rate #2 of 2 versions

Login - add to songbook

SHARE PAGE  




You need to log in to post comments