Guitar Tabs, Chords and Lyrics
Major upgrade!! After one year development the new version of Chordie is now online! Please give feedback.


Takillya (Estyabon)   Black Label Society

 
 |----------------------------------------------|
 |-/10-10-12-10-13-10-12-10---------------------|
 |--------------------------11-9-10-9-12-9-10-9-|
 |----------------------------------------------|
 |----------------------------------------------|
 |----------------------------------------------|

 


 


 S S S S S S S S S S S S S S S S


 

 
 |--------------------------------------------|
 |--------------------------------------------|
 |--------------------------------------------|
 |-12-9-10-9-12-9-10-9-(9)-(9)------7-9-10-7--|
 |-----------------------------8-10-----------|
 |--------------------------------------------|
 |-3--| |-3--| |-3-| |-3-|

 


 S S S +S S S S S S S S S S S S S S S S S


 

 
 |----------------------------------------------------|
 |----------------------------------------------------|
 |------7-(7)-----------------------------------------|
 |-9-10-------10-9------------------------------------|
 |-----------------12-10-8-12-10-8-10-8-7-10-8-7------|
 |-----------------------------------------------10-8-|

 


 


 |-3-| |-3-|


 S S S S S S S S S S S S S S S S S S


 

 
 |------------------------------------------|
 |------------------------------------------|
 |------------------------------------------|
 |------------------------------------------|
 |--------7-8------7-8-10-8-7---------------|
 |-7-8-10-----8-10------------10-8-7-10-8-7-|

 


 


 E +E E E E E E E E E H. H S S +S S S S S S


 

 
 |---------------0---|------0-------|------12-13-(13)-12-10----12-10-|
 |-----------0-1---1-|------0-------|-----------------------13-------|
 |---------2---------|----5---------|--------------------------------|
 |-------2-----------|-/7-----------|-0------------------------------|
 |-0-(0)-------------|--------------|--------------------------------|
 |-------------------|--------------|--------------------------------|

 


 


 S S S S S S S S S S S S S S S S


 

 
 |-------12--------------------------------------|
 |-13-12----13-12-13-15-13-13-10-12-8-10-12-8-10-|
 |-----------------------------------------------|
 |-----------------------------------------------|
 |-----------------------------------------------|
 |-----------------------------------------------|
 |-3--| |-3--| |-3--| |-3--| |-3--|

 


 S S S S S +S S S S S S S S S S S S S S S S


 

 
 |----8-10----8-(8)-12-10-8-12-10-8--------------------------|
 |-12------12-----------------------12-10-8-12-10-8----------|
 |--------------------------------------------------12-10-9--|
 |-----------------------------------------------------------|
 |-----------------------------------------------------------|
 |-----------------------------------------------------------|
 |-3--| |-3-| |-3-| |-3-| |-3-| |-3-| |-3-| |-3-|

 


 S S S S S S S S S S S S S S S S S S S S S S S S


 

 
 |-----------------------------------------------------|
 |-----------------------------------------------------|
 |-12-10-9-10-9-7-10-9-7-9-7-5-9-7-5-7-5-4-7-5-4-5-4-2-|
 |-----------------------------------------------------|
 |-----------------------------------------------------|
 |-----------------------------------------------------|
 |-3-| |-3-| |-3-|

 


 S S S S S S S S S S S S S S S S S S S


 

 
 |---------------------------------------|
 |---------------------------------------|
 |-5-4-2---------------------------------|
 |-------5-3-2-5-3-2-----------2-3-5-3-2-|
 |-------------------5-3-2-3-5-----------|
 |---------------------------------------|

 


 


 [1/4] |-3-| |-3-|[4/4] [3/4]


 S S S S S S E +E E E E E E E E E H. S S E +E +E +E +E


 

 
 |-------------|---------------0---|------0--------|--------------------------|
 |-------------|-----------0-1---1-|------0--------|-0--1--0-(0)-(0)-(0)-(0)--|
 |-------------|---------2---------|----5----------|-2-(2)-2-(2)-(2)-(2)-(2)--|
 |-------------|-------2-----------|-/7------------|-2-(2)-2-(2)-(2)-(2)-(2)--|
 |-5-3-2-5-3-2-|-0-(0)-------------|---------------|-0-(0)-0-(0)-(0)-(0)-(0)--|
 |-------------|-------------------|---------------|--------------------------|

 


 


 [4/4] H S S +S S S S S S S S S S S S +S S +S S +S S +S S +S


 S


 

 
 |------0-(0)--(0)-0-0--0-0-0-|--0-0-0--0-0-0-(0)--0--(0)-0-(0)-0-(0)--0--(0)-0-|
 |------0-(0)--(0)-0-0--0-0-0-|--0-0-0--0-0-0-(0)--0--(0)-0-(0)-0-(0)--0--(0)-0-|
 |------9S10--(10)-9-7----9-7-|----9-7------------------------------------------|
 |---------------------10-----|-10-----10-9-7-(7)-10-(10)-9-(9)-7-(7)-10-(10)-9-|
 |----------------------------|-------------------------------------------------|
 |-0--------------------------|-------------------------------------------------|

 


 


 +S S S S S S S S S S S S S S S S


 

 
 |---------0------0-----0-----0------0-|
 |-------0------0-----0-----0------0---|
 |-------------------------------------|
 |-(9)-7-----10-----9-----7-----10-----|
 |-------------------------------------|
 |-------------------------------------|

 


 


 S S S S S S S S S S S S S S S S S S S S S S S S S S S S S S S S


 

 
 |-----0-----0------0-----0-----0----|---0-----0-----0------------------|
 |---0-----0------0-----0-----0------|-0-----0-----0--------0-----0-----|
 |-----------------------------------|--------------------0-----0-----0-|
 |-9-----7-----10-----9-----7--------|----------------------------------|
 |--------------------------------10-|-----8-----7----------------------|
 |-----------------------------------|-----------------10-----8-----7---|

 


 


 S S S S S S S S S S E +E E E E E E E E +E +E +W


 

 
 |-----------------------------|-----0-----^0-(0)-(0)-|-(0)----|
 |-0-----0-----0-----0---------|---0---0---^0-(0)-(0)-|-(0)----|
 |-----0-----0-----0-----------|-2-------2-^1-(1)-(1)-|-(1)----|
 |---------------------------2-|-----------^2-(2)-(2)-|-(2)----|
 |-----------------------------|-----------^2-(2)-(2)-|-(2)----|
 |---5-----3-----1-----0-(0)---|-----------^0-(0)-(0)-|-(0)----|


Important: The song above is NOT stored on the Chordie server. The original song is hosted at www.xguitar.com. Chordie works as a search engine and provides on-the-fly formatting. Chordie does not index songs against artists'/composers' will. To remove this song please click here.

This song is displayed as text-only. Transposing and tuning is only available for chordpro-songs.
Rate #1 of 1 versions

Login - add to songbook

SHARE PAGE  




You need to log in to post comments