Guitar Tabs, Chords and Lyrics
Major upgrade!! After one year development the new version of Chordie is now online! Please give feedback.


Black Sabbath  Black Sabbath

Start Date:
Finished: 14 Sept 97
Updated: 14:38 9/6/00
Black Sabbath - Black Sabbath
From Black Sabbath's "Black Sabbath" Album 1970
Tuning Info: Standard E (440Hz) Tuning, 66 beats/min., 4/4 count
NOTE: Lyrics may not align with music and secondary guitar part(s) may not
align due to space constraints .
Storm Sound effect with tublar bell
(f)
[G] [G] [G] [G] 
 
 -----------------------------------------------------------------------------
 -----------------------------------------------------------------------------
 -----------------------------------------------------------------------------
 ----5-----------------------5---------------5--------------------------5-----
 -5----(4h5-tr~~~~)(10\7)-5-----4~(/10\7)-5-----(4h5-tr~~~~)-(/10\7)-5------4-
 -3-----------------------3---------------3--------------------------3--------

(mf)
 
 ----------------------------------------------------
 ----------------------------------------------------
 ----------------------------------------------------
 -----------5--------------------------5-------------
 --------------------4---------------------------4---
 -3----------------------------3---------------------

 
 ----------------------------------------------------
 ----------------------------------------------------
 ----------------------------------------------------
 -----------5--------------------------5-------------
 --------------------4---------------------------4---
 -3----------------------------3---------------------

What is this that stands before me?
 
 ----------------------------------------------------
 ----------------------------------------------------
 ----------------------------------------------------
 -----------5--------------------------5-------------
 --------------------4---------------------------4---
 -3----------------------------3---------------------

Figure in black, which points at me.
 
 ----------------------------------------------------
 ----------------------------------------------------
 ----------------------------------------------------
 -----------5--------------------------5-------------
 --------------------4---------------------------4---
 -3----------------------------3---------------------

Turn 'round quick, and start to run.
 
 ----------------------------------------------------
 ----------------------------------------------------
 ----------------------------------------------------
 -----------5--------------------------5-------------
 --------------------4---------------------------4---
 -3----------------------------3---------------------

Find out I'm the chosen one. Oh No!!
[G] [G] [G] [G] 
 
 -----------------------------------------------------------------------------
 -----------------------------------------------------------------------------
 -----------------------------------------------------------------------------
 ----5-----------------------5---------------5--------------------------5-----
 -5----(4h5-tr~~~~)(10\7)-5-----4~(/10\7)-5-----(4h5-tr~~~~)-(/10\7)-5------4-
 -3-----------------------3---------------3--------------------------3--------
 ----------------------------------------------------
 ----------------------------------------------------
 ----------------------------------------------------
 -----------5--------------------------5-------------
 --------------------4---------------------------4---
 -3----------------------------3---------------------

 
 ----------------------------------------------------
 ----------------------------------------------------
 ----------------------------------------------------
 -----------5--------------------------5-------------
 --------------------4---------------------------4---
 -3----------------------------3---------------------

Big black shape with eyes of fire.
 
 ----------------------------------------------------
 ----------------------------------------------------
 ----------------------------------------------------
 -----------5--------------------------5-------------
 --------------------4---------------------------4---
 -3----------------------------3---------------------

Telling people their desire.
 
 ----------------------------------------------------
 ----------------------------------------------------
 ----------------------------------------------------
 -----------5--------------------------5-------------
 --------------------4---------------------------4---
 -3----------------------------3---------------------

Satan sitting there, he's smiling.
 
 ----------------------------------------------------
 ----------------------------------------------------
 ----------------------------------------------------
 -----------5--------------------------5-------------
 --------------------4---------------------------4---
 -3----------------------------3---------------------

Watches those flames, get higher and higher.
Oh no, no...please God help me!
[G] [G] [G] [G] 
 
 -----------------------------------------------------------------------------
 -----------------------------------------------------------------------------
 -----------------------------------------------------------------------------
 ----5-----------------------5---------------5--------------------------5-----
 -5----(4h5-tr~~~~)(10\7)-5-----4~(/10\7)-5-----(4h5-tr~~~~)-(/10\7)-5------4-
 -3-----------------------3---------------3--------------------------3--------

[G]  
 
 -------------------
 -------------------
 -------------------
 -------------------
 -5-----------------
 -3----------------- 

 
 ----------------------------------------------
 ----------------------------------------------
 ----------------------------------------------
 ----------------------------------------------
 --------3-5-6-3-5--3-5--------3-5-6-3-5--3-5--
 -3-3-3-5---------6-----3-3-3-5---------6------

 
 ----------------------------------------------
 ----------------------------------------------
 ----------------------------------------------
 ----------------------------------------------
 --------3-5-6-3-5--3-5--------3-5-6-3-5--3-5--
 -3-3-3-5---------6-----3-3-3-5---------6------

 
 ----------------------------------------------
 ----------------------------------------------
 ----------------------------------------------
 ----------------------------------------------
 --------3-5-6-3-5--3-5--------3-5-6-3-5--3-5--
 -3-3-3-5---------6-----3-3-3-5---------6------

Is this the end, my friend?
 
 ----------------------------------------------
 ----------------------------------------------
 ----------------------------------------------
 ----------------------------------------------
 --------3-5-6-3-5--3-5--------3-5-6-3-5--3-5--
 -3-3-3-5---------6-----3-3-3-5---------6------

 
 ----------------------------------------------
 ----------------------------------------------
 ----------------------------------------------
 ----------------------------------------------
 --------3-5-6-3-5--3-5--------3-5-6-3-5--3-5--
 -3-3-3-5---------6-----3-3-3-5---------6------

Satan's comin' 'round the bend.
 
 ----------------------------------------------
 ----------------------------------------------
 ----------------------------------------------
 ----------------------------------------------
 --------3-5-6-3-5--3-5--------3-5-6-3-5--3-5--
 -3-3-3-5---------6-----3-3-3-5---------6------

 
 ----------------------------------------------
 ----------------------------------------------
 ----------------------------------------------
 ----------------------------------------------
 --------3-5-6-3-5--3-5--------3-5-6-3-5--3-5--
 -3-3-3-5---------6-----3-3-3-5---------6------

People runnin' 'caues they're scared.
 
 ----------------------------------------------
 ----------------------------------------------
 ----------------------------------------------
 ----------------------------------------------
 --------3-5-6-3-5--3-5--------3-5-6-3-5--3-5--
 -3-3-3-5---------6-----3-3-3-5---------6------

 
 ----------------------------------------------
 ----------------------------------------------
 ----------------------------------------------
 ----------------------------------------------
 --------3-5-6-3-5--3-5--------3-5-6-3-5--3-5--
 -3-3-3-5---------6-----3-3-3-5---------6------

You people that are goin' beware!
 
 ----------------------------------------------
 ----------------------------------------------
 ----------------------------------------------
 ----------------------------------------------
 --------3-5-6-3-5--3-5--------3-5-6-3-5--3-5--
 -3-3-3-5---------6-----3-3-3-5---------6------

No! No! Please, no!
[G] [Gm7] [G] [Gm7] 
 
 ---------------------------------------------------------------
 ----------------3~~-----------------------------3~~------------
 ----------------3~~-----------------------------3~~------------
 ----------------3~~-----------------------------3~~------------
 -5-------------------------------5-----------------------------
 -3-------------------------------3-----------------------------

[G] [Gm7] [G] [Gm7] 
 
 ---------------------------------------------------------------
 ----------------3~~-----------------------------3~~------------
 ----------------3~~-----------------------------3~~------------
 ----------------3~~-----------------------------3~~------------
 -5-------------------------------5-----------------------------
 -3-------------------------------3-----------------------------

 
 ----------------------------------------------------3----------
 --------------------------------3-----3-------3-----3----3-----
 ---------------------------3~~--5^(7)-5^(7)---5^(7)-----5^(7)--
 -(3/)5p3-5~~--5-5-3~~~--3h5------------------------------------
 ---------------------------------------------------------------
 ---------------------------------------------------------------

[G] [Gm7] [G] [Gm7] 
 
 ---------------------------------------------------------------
 ----------------3~~-----------------------------3~~------------
 ----------------3~~-----------------------------3~~------------
 ----------------3~~-----------------------------3~~------------
 -5-------------------------------5-----------------------------
 -3-------------------------------3-----------------------------

 
 -----------------------------------------------------------------------
 --------------------------------------15-15-17^(19)--15-(17^19-19`17)--
 -6--------8-------10------(14/)17^(19)---------------------------------
 -8^(10)--10^(12)--12^(14)----------------------------------------------
 -----------------------------------------------------------------------
 -----------------------------------------------------------------------

(Guitar 1)
[G] [Gm7] [G] [Gm7] 
 
 ---------------------------------------------------------------
 ----------------3~~-----------------------------3~~------------
 ----------------3~~-----------------------------3~~------------
 ----------------3~~-----------------------------3~~------------
 -5-------------------------------5-----------------------------
 -3-------------------------------3-----------------------------

 
 ------------------------------------------------------18-18^(20-20)-15-
 -----------------------------------------------------------------------
 -----------------------------------------------------------------------
 -----------------------------------------------------------------------
 -----------------------------------------------------------------------

(Guitar 1)
[G] [Gm7] [G] [Gm7] 
 
 ---------------------------------------------------------------
 ----------------3~~-----------------------------3~~------------
 ----------------3~~-----------------------------3~~------------
 ----------------3~~-----------------------------3~~------------
 -5-------------------------------5-----------------------------
 -3-------------------------------3-----------------------------

 
 -------------------------------------------------------------------
 -------15-------15-------15-------15-------15-------15-------15~---
 -17^(19)--17^(19)--17^(19)--17^(19)--17^(19)--17^(19)--17^(19)-----
 -------------------------------------------------------------------
 -------------------------------------------------------------------
 -------------------------------------------------------------------

(Guitar 1)
[G] [Gm7] [G] [Gm7] 
 
 ---------------------------------------------------------------
 ----------------3~~-----------------------------3~~------------
 ----------------3~~-----------------------------3~~------------
 ----------------3~~-----------------------------3~~------------
 -5-------------------------------5-----------------------------
 -3-------------------------------3-----------------------------

 
 ------15-------15--18^(20)`18-18^(20)`18------------------------------
 17^(19)--17^(19)------------------------------------------------------
 ----------------------------------------------------------------------
 ----------------------------------------------------------------------
 ----------------------------------------------------------------------

(Guitar 1)
[G] [Gm7] [G] [Gm7] 
 
 ---------------------------------------------------------------
 ----------------3~~-----------------------------3~~------------
 ----------------3~~-----------------------------3~~------------
 ----------------3~~-----------------------------3~~------------
 -5-------------------------------5-----------------------------
 -3-------------------------------3-----------------------------

 
 ------18---------------------------------------------------------------
 -----------------------------------------------------------------------
 -----------------------------------------------------------------------
 -----------------------------------------------------------------------
 -----------------------------------------------------------------------

(Guitar 1)
 
 -15---------------15-----------------------------------------------------
 ---15h18--------15---17p15---------------------15--------15--------15----
 ---------17^(19)----------17-15~-----15-17^(19)---17^(19)---17^(19)------
 --------------------------------15h17------------------------------------
 -------------------------------------------------------------------------
 -------------------------------------------------------------------------

(Guitar 1)
 
 -------------------------

 
 -------------------------
 -------------------------
 -------------------------
 -------------------------

(Guitar 1)
[G] [Gm7] [G] [Gm7] 
 
 ---------------------------------------------------------------
 ----------------3~~-----------------------------3~~------------
 ----------------3~~-----------------------------3~~------------
 ----------------3~~-----------------------------3~~------------
 -5-------------------------------5-----------------------------
 -3-------------------------------3-----------------------------

[G] [Gm7] [G] [Gm7] 
 
 ---------------------------------------------------------------
 ----------------3~~-----------------------------3~~------------
 ----------------3~~-----------------------------3~~------------
 ----------------3~~-----------------------------3~~------------
 -5-------------------------------5-----------------------------
 -3-------------------------------3-----------------------------

[G] [Gm7]  
 
 -------------------------
 ----------------3~~------
 ----------------3~~------
 ----------------3~~------
 -5-----------------------
 -3-----------------------

[G] [Gm7]  
 
 ------------------------
 ----------------3~~-----
 ----------------3~~-----
 ----------------3~~-----
 -5----------------------
 -3----------------------

[G] [G] [G] [G] [G] [G] [F] [F] [F] [F] [F] [F] [G] [G] [G] [G] 
 
 ----------------------------------------------------
 ----------------------------------------------------
 ----------------------------------------------------
 ----------------------------------------------------
 -5---5-5-5---5-5-3---3-3-3---3-3-5----------5-5-5---
 -3---3-3-3---3-3-1---1-1-1---1-1-3----------3-3-3---


Important: The song above is NOT stored on the Chordie server. The original song is hosted at www.xguitar.com. Chordie works as a search engine and provides on-the-fly formatting. Chordie does not index songs against artists'/composers' will. To remove this song please click here.

Text color:
Chord color:
Chord grids: 
Font size:    
Page size: 

F G Gm7
Rate #4 of 6 versions

Jango Player

Login - add to songbook

SHARE PAGE  



You need to log in to post comments