Guitar Tabs, Chords and Lyrics
Major upgrade!! After one year development the new version of Chordie is now online! Please give feedback.


Dying for Love  Black Sabbath

Start Date: 07:36 9/24/01
Finished: 09:21 9/25/01
UPDATED - 16:45 10/23/01
Black Sabbath - Dying for Love
From Black Sabbath's Cross Purposes - 1991
Tuning Info: Tune to Eb, Largo, 53 beats/min., 4/4 count
Lyrics written here may not align with the tab due to space constraints.
[(m)]OPENING SOLO
(.29)
 
 ------6-------------6-5~-6-8s/10-6~---55-8-5-6-5~-----6~s\(3)--10-8---10-8--8-----------
 -------8~s\(3)------------------------------------6/8~--------------10----10--10~/11\10-
 -7^(9)---------7^(9)--------------------------------------------------------------------
 ----------------------------------------------------------------------------------------
 ----------------------------------------------------------------------------------------
 ----------------------------------------------------------------------------------------

(.47)
 
 --------------------------------------------------------------------------------------
 ------13-12~--11--10-------11---10-----------------------------6-8~-------------------
 -12-------------12--12-------12---12----------5~~p3--7-5~~--5/7----7--5h7p5h7p5\3~/5--
 ---12------------------10-----------10//12~~-------5----------------------------------
 --------------------------------------------------------------------------------------
 --------------------------------------------------------------------------------------

(.53)
 
 --------------------------------------------------------------------------
 -----------11------12-11-----------11-110-8-----8p6-6-------6-------------
 ------12-12---12-12-----12-10~---12--------10-7----7-7p5-5h7--7p5\3-5-3~--
 -10/12-------------------------12-----------------------------------------
 --------------------------------------------------------------------------
 --------------------------------------------------------------------------

(.54-.59)
 
 -----------------------
 -----------------------
 -----5^(7`5)-----------
 -5-7--------7-5-4-3~---
 -----------------------
 -----------------------

(.59)
C arpegio C arpegio C arpegio C arpegio
 
 ------------------------------------------------------------------------------
 ----1---1----1---1-----1---1----1---1-----1---1-----1---1----1---1----1---1---
 ---0---*-0--0---0-----0---*-0--0---0-----0---*-0--0---0-----0---*-0--0---0----
 --0---*----0---0-----0---*----0---0-----0---*----0---0-----0---*----0---0-----
 -3---3----3---1-----3---3----3---1----33---3----3---1-----3---3----3---1------
 ------------------------------------------------------------------------------

(Guitar 1)
 
 -------------------------------------------------------------------------
 -------------------------------------------------------------------------
 ---------3---------------------------------------------------------------
 -----3-3----3-------0h3-3----0-----------0-0----3---------0h3-3---0------
 --3-------------3-------------------3-----------------3------------------
 -------------------------------------------------------------------------

(Guitar 2 and/or Bass)
C arpegio C arpegio C arpegio C arpegio
 
 ------------------------------------------------------------------------------
 ----1---1----1---1-----1---1----1---1-----1---1-----1---1----1---1----1---1---
 ---0---*-0--0---0-----0---*-0--0---0-----0---*-0--0---0-----0---*-0--0---0----
 --0---*----0---0-----0---*----0---0-----0---*----0---0-----0---*----0---0-----
 -3---3----3---1-----3---3----3---1----33---3----3---1-----3---3----3---1------
 ------------------------------------------------------------------------------

(Guitar 1)
 
 -------------------------------------------------------------------------
 -------------------------------------------------------------------------
 ---------3---------------------------------------------------------------
 -----3-3----3-------0h3-3----0-----------0-0----3---------0h3-3---0------
 --3-------------3-------------------3-----------------3------------------
 -------------------------------------------------------------------------

(Guitar 2 and/or Bass)
Can you hear the people sin their songs? To tunes of Glory, they move as one.
C arpegio C arpegio C arpegio C arpegio
 
 ------------------------------------------------------------------------------
 ----1---1----1---1-----1---1----1---1-----1---1-----1---1----1---1----1---1---
 ---0---*-0--0---0-----0---*-0--0---0-----0---*-0--0---0-----0---*-0--0---0----
 --0---*----0---0-----0---*----0---0-----0---*----0---0-----0---*----0---0-----
 -3---3----3---1-----3---3----3---1----33---3----3---1-----3---3----3---1------
 ------------------------------------------------------------------------------

(Guitar 1)
 
 -------------------------------------------------------------------------
 -------------------------------------------------------------------------
 ---------3---------------------------------------------------------------
 -----3-3----3-------0h3-3----0-----------0-0----3---------0h3-3---0------
 --3-------------3-------------------3-----------------3------------------
 -------------------------------------------------------------------------

(Guitar 2 and/or Bass)
Refugees of Liberation, marching on. Sing your songs, Rock the Nation, Right our Wrongs
CHOURSE (1:53)
D arpegio D arpegio
 
 -------0-----------0-------------------------------0-----------0----------------------
 ------3-3---------3-3-----------------------------3-3---------3-3---------------------
 -----2---2-------2---2---------------------------2---2-------2---2--------------------
 ----0-----0-----0-----0---3---0-----------------0-----0-----0-----0---3---0-----------
 -0-----------0--------------------3---22----0-----------0--------------------3---2----
 -----------------------------------------3-----------------------------------------3--

When you tke a life and steal its shadow. All that's left is humanity.
C arpegio C arpegio C arpegio C arpegio
 
 ------------------------------------------------------------------------------
 ----1---1----1---1-----1---1----1---1-----1---1-----1---1----1---1----1---1---
 ---0---*-0--0---0-----0---*-0--0---0-----0---*-0--0---0-----0---*-0--0---0----
 --0---*----0---0-----0---*----0---0-----0---*----0---0-----0---*----0---0-----
 -3---3----3---1-----3---3----3---1----33---3----3---1-----3---3----3---1------
 ------------------------------------------------------------------------------

(Guitar 1)
 
 -------------------------------------------------------------------------
 -------------------------------------------------------------------------
 ---------3---------------------------------------------------------------
 -----3-3----3-------0h3-3----0-----------0-0----3---------0h3-3---0------
 --3-------------3-------------------3-----------------3------------------
 -------------------------------------------------------------------------

(Guitar 2 and/or Bass)
It's gettin' closer, a change is bound to come. There's someone out there, holding
candles to the sun
C arpegio C arpegio C arpegio C arpegio
 
 ------------------------------------------------------------------------------
 ----1---1----1---1-----1---1----1---1-----1---1-----1---1----1---1----1---1---
 ---0---*-0--0---0-----0---*-0--0---0-----0---*-0--0---0-----0---*-0--0---0----
 --0---*----0---0-----0---*----0---0-----0---*----0---0-----0---*----0---0-----
 -3---3----3---1-----3---3----3---1----33---3----3---1-----3---3----3---1------
 ------------------------------------------------------------------------------

(Guitar 1)
 
 -------------------------------------------------------------------------
 -------------------------------------------------------------------------
 ---------3---------------------------------------------------------------
 -----3-3----3-------0h3-3----0-----------0-0----3---------0h3-3---0------
 --3-------------3-------------------3-----------------3------------------
 -------------------------------------------------------------------------

(Guitar 2 and/or Bass)
Then an answer, says Peace will come around. Stand in line, take your time and be Proud
CHOURSE (2:47)
D arpegio D arpegio
 
 -------0-----------0-------------------------------0-----------0----------------------
 ------3-3---------3-3-----------------------------3-3---------3-3---------------------
 -----2---2-------2---2---------------------------2---2-------2---2--------------------
 ----0-----0-----0-----0---3---0-----------------0-----0-----0-----0---3---0-----------
 -0-----------0--------------------3---22----0-----------0--------------------3---2----
 -----------------------------------------3-----------------------------------------3--

When you tke a life and steal its shadow. All that's left is humanity. Yeah
D arpegio D arpegio
 
 -------0-----------0-------------------------------0-----------0----------------------
 ------3-3---------3-3-----------------------------3-3---------3-3---------------------
 -----2---2-------2---2---------------------------2---2-------2---2--------------------
 ----0-----0-----0-----0---3---0-----------------0-----0-----0-----0---3---0-----------
 -0-----------0--------------------3---22----0-----------0--------------------3---2----
 -----------------------------------------3-----------------------------------------3--

Take a man and steal tomorrow. All that's left is you and me, Oh yeah!
BRIDGE (3:23)
A A A G A A G A C~ A A A G A
 
 --------------------------------------------------
 --------------------------------------------------
 --------------------------------------------------
 --------------------------------------------------
 -7--7--7--5--7-----7--5--7--10~---7--7---7--5--7--
 -5--5--5--3--5-----5--3--5---8~---5--5---5--3--5--

Hear them call you, Soldiers all in the field of Love
A A A G A A G A C~ A B C D E (3:42)
 
 -------------------------------------------------------
 -------------------------------------------------------
 -------------------------------------------------------
 -------------------------------------------------------
 -7--7--7--5--7-----7--5--7--10~---7--9---10---12--14---
 -5--5--5--3--5-----5--3--5---8~---5--7----8---10--12---

Brothers, Sisters, children all dying for love
 
 ---------------------------------------------------------------
 ----8-10-10/12--10-10\8-----------8-10--10/12--10\8--15-12~~---
 -7/9-------------------7-9~---7/9------------------------------
 ---------------------------------------------------------------
 ---------------------------------------------------------------
 ---------------------------------------------------------------

(Guitar 1)
[C] [E] [F] [C] [G] [C] [C] [E] [F] [C] [G] [C] 
 
 -------------------------------------------------------------------
 -------------------------------------------------------------------
 -------------------------------------------------------------------
 -5----9----10----5---------5--------5-----9----10----5---------5---
 -3----7-----8----3----5----3--------3-----7-----8----3----5----3---
 ----------------------3-----------------------------------3--------

(Guitar 2)
(3:59)
 
 ------------------------------------------------------------------
 ----8-10-10/12--10-10\8-----------8-10--10/12--10\8--15-14-13~~---
 -7/9-------------------7-9~---7/9---------------------------------
 ------------------------------------------------------------------
 ------------------------------------------------------------------
 ------------------------------------------------------------------

(Guitar 1)
(3:59)
[C] [E] [F] [C] [G] [C] [C] [E] [F] [C] [G] [C] 
 
 -------------------------------------------------------------------
 -------------------------------------------------------------------
 -------------------------------------------------------------------
 -5----9----10----5---------5--------5-----9----10----5---------5---
 -3----7-----8----3----5----3--------3-----7-----8----3----5----3---
 ----------------------3-----------------------------------3--------

(Guitar 2)
C arpegio C arpegio C arpegio C arpegio
 
 ------------------------------------------------------------------------------
 ----1---1----1---1-----1---1----1---1-----1---1-----1---1----1---1----1---1---
 ---0---*-0--0---0-----0---*-0--0---0-----0---*-0--0---0-----0---*-0--0---0----
 --0---*----0---0-----0---*----0---0-----0---*----0---0-----0---*----0---0-----
 -3---3----3---1-----3---3----3---1----33---3----3---1-----3---3----3---1------
 ------------------------------------------------------------------------------

(Guitar 1)
[C] [E] [F] [C] [G] [C] [C] [E] [F] [C] [G] [C] 
 
 -------------------------------------------------------------------
 -------------------------------------------------------------------
 -------------------------------------------------------------------
 -5----9----10----5---------5--------5-----9----10----5---------5---
 -3----7-----8----3----5----3--------3-----7-----8----3----5----3---
 ----------------------3-----------------------------------3--------

(Guitar 2)
Refugees of Liberation, marching on, sing your songs, Rock the Nation, Right our wrongs
CHOURSE (4:17)
D arpegio D arpegio
 
 -------0-----------0-------------------------------0-----------0----------------------
 ------3-3---------3-3-----------------------------3-3---------3-3---------------------
 -----2---2-------2---2---------------------------2---2-------2---2--------------------
 ----0-----0-----0-----0---3---0-----------------0-----0-----0-----0---3---0-----------
 -0-----------0--------------------3---22----0-----------0--------------------3---2----
 -----------------------------------------3-----------------------------------------3--

(Guitar 1)
[A5] [A5] [B#5] [C5] [G5] [F5] [D5] [C5] [B#5] [A5] [A5] [B#5] [C5] [G5] [F5] [D5] [C5] [B#5] 
 
 ---------------------------------------------------------------------------------------
 ---------------------------------------------------------------------------------------
 -2------------------------------------------2------------------------------------------
 -2-----2--4--5----------10----7---5---44----2-----2--4--5----------10----7---5---4-----
 -0-----0--2--3---5-------8----5---3---22----0-----0--2--3---5-------8----5---3---2-----
 -----------------3-----------------------3~----------------------------------------3~--

(Guitar 2)
(When you) take a life and steal its shadow. All that's left is humanity. Ohh
D arpegio D arpegio
 
 -------0-----------0-------------------------------0-----------0----------------------
 ------3-3---------3-3-----------------------------3-3---------3-3---------------------
 -----2---2-------2---2---------------------------2---2-------2---2--------------------
 ----0-----0-----0-----0---3---0-----------------0-----0-----0-----0---3---0-----------
 -0-----------0--------------------3---22----0-----------0--------------------3---2----
 -----------------------------------------3-----------------------------------------3--

Take a man and steal tomorrow. All that's left is you and me, Oh yeah!
[A5] [A5] [B#5] [C5] [G5] [F5] [D5] [C5] [B#5] [A5] [A5] [B#5] [C5] [G5] [F5] [D5] [C5] [B#5] 
 
 ---------------------------------------------------------------------------------------
 ---------------------------------------------------------------------------------------
 -2------------------------------------------2------------------------------------------
 -2-----2--4--5----------10----7---5---44----2-----2--4--5----------10----7---5---4-----
 -0-----0--2--3---5-------8----5---3---22----0-----0--2--3---5-------8----5---3---2-----
 -----------------3-----------------------3~-----------------3----------------------3~--

(Guitar 2)
(4:52)
D arpegio D arpegio
 
 -------0-----------0-------------------------------0-----------0----------------------
 ------3-3---------3-3-----------------------------3-3---------3-3---------------------
 -----2---2-------2---2---------------------------2---2-------2---2--------------------
 ----0-----0-----0-----0---3---0-----------------0-----0-----0-----0---3---0-----------
 -0-----------0--------------------3---22----0-----------0--------------------3---2----
 -----------------------------------------3-----------------------------------------3--

(Guitar 1)
[A] [A] [A] [G] [A] [A] [B] [C] [G] [E] [F] [D] [C] [A] [A] [A] [G] [A] [A] [B] [C] [G] [E] [F] [D] [C] 
 
 ---------------------------------------------------------------------------------
 ---------------------------------------------------------------------------------
 ---------------------------------------------------------------------------------
 -------------------------10--7--5---------------------------------10--7--5-------
 -7-7-7-5-7--7-9-10-5--14--8--5--3--2------7-7-7-5-7--7-9-10-5--14--8--5--3--2----
 -5-5-5-3-5--5-7--8-3--12------------3~----5-5-5-3-5--5-7--8-3--12------------3~--

(Guitar 2)
Hear them call you, dying for love,
D arpegio D arpegio
 
 -------0-----------0-------------------------------0-----------0----------------------
 ------3-3---------3-3-----------------------------3-3---------3-3---------------------
 -----2---2-------2---2---------------------------2---2-------2---2--------------------
 ----0-----0-----0-----0---3---0-----------------0-----0-----0-----0---3---0-----------
 -0-----------0--------------------3---22----0-----------0--------------------3---2----
 -----------------------------------------3-----------------------------------------3--

(Guitar 1)
[A] [A] [A] [G] [A] [A] [B] [C] [G] [E] [F] [D] [C] [A] [A] [A] [G] [A] [A] [B] [C] [G] [E] [F] [D] [C] 
 
 ---------------------------------------------------------------------------------
 ---------------------------------------------------------------------------------
 ---------------------------------------------------------------------------------
 -------------------------10--7--5---------------------------------10--7--5-------
 -7-7-7-5-7--7-9-10-5--14--8--5--3--2------7-7-7-5-7--7-9-10-5--14--8--5--3--2----
 -5-5-5-3-5--5-7--8-3--12------------3~----5-5-5-3-5--5-7--8-3--12------------3~--

(Guitar 2)
Those who know you, dying for love
D arpegio D arpegio
 
 -------0-----------0-------------------------------0-----------0----------------------
 ------3-3---------3-3-----------------------------3-3---------3-3---------------------
 -----2---2-------2---2---------------------------2---2-------2---2--------------------
 ----0-----0-----0-----0---3---0-----------------0-----0-----0-----0---3---0-----------
 -0-----------0--------------------3---22----0-----------0--------------------3---2----
 -----------------------------------------3-----------------------------------------3--

(Guitar 1)
[A] [A] [A] [G] [A] [A] [B] [C] [G] [E] [F] [D] [C] [A] [A] [A] [G] [A] [A] [B] [C] [G] [E] [F] [D] [C] 
 
 ---------------------------------------------------------------------------------
 ---------------------------------------------------------------------------------
 ---------------------------------------------------------------------------------
 -------------------------10--7--5---------------------------------10--7--5-------
 -7-7-7-5-7--7-9-10-5--14--8--5--3--2------7-7-7-5-7--7-9-10-5--14--8--5--3--2----
 -5-5-5-3-5--5-7--8-3--12------------3~----5-5-5-3-5--5-7--8-3--12------------3~--

(Guitar 2)
 
 -------------------------------------------------------
 ---------------------8--10~~~--10p8\5~-----------------
 ----------------5h7/9----------------------------------
 -7-7-7-5-7---5h7---------------------------------------
 -------------------------------------------------------
 -------------------------------------------------------

(Guitar 3)
Brothers, Sisters, dying for love
D arpegio D arpegio
 
 -------0-----------0-------------------------------0-----------0----------------------
 ------3-3---------3-3-----------------------------3-3---------3-3---------------------
 -----2---2-------2---2---------------------------2---2-------2---2--------------------
 ----0-----0-----0-----0---3---0-----------------0-----0-----0-----0---3---0-----------
 -0-----------0--------------------3---22----0-----------0--------------------3---2----
 -----------------------------------------3-----------------------------------------3--

(Guitar 1)
[A] [A] [A] [G] [A] [A] [B] [C] [G] [E] [F] [D] [C] [A] [A] [A] [G] [A] [A] [B] [C] [G] [E] [F] [D] [C] 
 
 ---------------------------------------------------------------------------------
 ---------------------------------------------------------------------------------
 ---------------------------------------------------------------------------------
 -------------------------10--7--5---------------------------------10--7--5-------
 -7-7-7-5-7--7-9-10-5--14--8--5--3--2------7-7-7-5-7--7-9-10-5--14--8--5--3--2----
 -5-5-5-3-5--5-7--8-3--12------------3~----5-5-5-3-5--5-7--8-3--12------------3~--

(Guitar 2)
 
 --------7~\(3)-8~\(5)--12~~---------------------------20^(22)--17~-17p15--17~--17p15--17~
 -8/10~~----------------------(13)/18~~--18-18p15-15----------17---------17----------17---
 ---------------------------------------------------17------------------------------------
 -----------------------------------------------------------------------------------------
 -----------------------------------------------------------------------------------------
 -----------------------------------------------------------------------------------------

(Guitar 3)
Saints and Sinners, dying for love (5:25 Begin Coda)
D arpegio D arpegio
 
 -------0-----------0-------------------------------0-----------0----------------------
 ------3-3---------3-3-----------------------------3-3---------3-3---------------------
 -----2---2-------2---2---------------------------2---2-------2---2--------------------
 ----0-----0-----0-----0---3---0-----------------0-----0-----0-----0---3---0-----------
 -0-----------0--------------------3---22----0-----------0--------------------3---2----
 -----------------------------------------3-----------------------------------------3--

(Guitar 1)
[A] [A] [A] [G] [A] [A] [B] [C] [G] [E] [F] [D] [C] [A] [A] [A] [G] [A] [A] [B] [C] [G] [E] [F] [D] [C] 
 
 ---------------------------------------------------------------------------------
 ---------------------------------------------------------------------------------
 ---------------------------------------------------------------------------------
 -------------------------10--7--5---------------------------------10--7--5-------
 -7-7-7-5-7--7-9-10-5--14--8--5--3--2------7-7-7-5-7--7-9-10-5--14--8--5--3--2----
 -5-5-5-3-5--5-7--8-3--12------------3~----5-5-5-3-5--5-7--8-3--12------------3~--

(Guitar 2)
(5:38)
 
 -20^(22)-20-17--17h20p17----------------------------------------------------------------
 ------------------------20^(22s`20)-17--17--------------------------------------5-------
 --------------------------------------------(3/)10~-(8h10p8 tr~)-10p8--5~--7^(9)-7p5~---
 ----------------------------------------------------------------------7-----------------
 ----------------------------------------------------------------------------------------
 ----------------------------------------------------------------------------------------

(Guitar 3)
Dying for Love
D arpegio D arpegio
 
 -------0-----------0-------------------------------0-----------0----------------------
 ------3-3---------3-3-----------------------------3-3---------3-3---------------------
 -----2---2-------2---2---------------------------2---2-------2---2--------------------
 ----0-----0-----0-----0---3---0-----------------0-----0-----0-----0---3---0-----------
 -0-----------0--------------------3---22----0-----------0--------------------3---2----
 -----------------------------------------3-----------------------------------------3--

(Guitar 1)
A A A G A A B C G E F D C A A A G A A B C G E F D C (5:46)
 
 ---------------------------------------------------------------------------------
 ---------------------------------------------------------------------------------
 ---------------------------------------------------------------------------------
 -------------------------10--7--5---------------------------------10--7--5-------
 -7-7-7-5-7--7-9-10-5--14--8--5--3--2------7-7-7-5-7--7-9-10-5--14--8--5--3--2----
 -5-5-5-3-5--5-7--8-3--12------------3~----5-5-5-3-5--5-7--8-3--12------------3~--

(Guitar 2)
(5:46)
 
 ----------------------------------------------------------------------
 -------------------------------------------10p8-8---------------------
 -(5)/9~~\(7)---7-9~~\(7)---7-9~~\(7)--77-9-----9-9p7\5-5-7p5----------
 -------------9------------9----------9----------------7-----7-5-------
 ----------------------------------------------------------------------
 ----------------------------------------------------------------------

(Guitar 3)
Dying for love

Important: The song above is NOT stored on the Chordie server. The original song is hosted at www.xguitar.com. Chordie works as a search engine and provides on-the-fly formatting. Chordie does not index songs against artists'/composers' will. To remove this song please click here.

Text color:
Chord color:
Chord grids: 
Font size:    
Page size: 

A A5 B C C5 D D5 E F F5 G G5
Rate #3 of 5 versions

Login - add to songbook

SHARE PAGE  



You need to log in to post comments