Guitar Tabs, Chords and Lyrics
Major upgrade!! After one year development the new version of Chordie is now online! Please give feedback.


Psychophobia  Black Sabbath

Start Date: 04:45 9/22/01
Finished: 06:20 9/22/01
UPDATED -
Black Sabbath - Psychophobia
From Black Sabbath's Cross Purposes - 1994
Tuning Info: Tune to Eb, Andante, 104 beats/min., 4/4 count
Lyrics written here may not align with the tab due to space constraints.
(f)
[A5] [A5] [A5] [A5] [A5] [A5] 
 
 ---------------------------------------------------------------------------------------
 ------------------2-2---------------------2--------------------2-2------------------2--
 ------------------2-2---------------------2--------------------2-2------------------2--
 ------------------2-2---------------------2--------------------2-2------------------2--
 ------------------0-0---------------------0--------------------0-0------------------0--
 -2h3p2p0--2h3p2p0-------2h3p2p0--2h3p2p00----2h3p2p0--2h3p2p0------2h3p2p0--2h3p2p0----

[A5] [A5] [A5] [A5] [A5] [G5] [D]  
 
 -----------------------------------------------------------------------------3p0---
 ------------------2-2---------------------2--------------------2-2-----------2p0---
 ------------------2-2---------------------2--------------------2-2--------0--3p0---
 ------------------2-2---------------------2--------------------2-2------0----------
 ------------------0-0---------------------0--------------------0-0----2------------
 -2h3p2p0--2h3p2p0-------2h3p2p0--2h3p2p00----2h3p2p0--2h3p2p0-------3--------------

[A5] [A5] [A5] [A5] [A5] [A5] 
 
 ---------------------------------------------------------------------------------------
 ------------------2-2---------------------2--------------------2-2------------------2--
 ------------------2-2---------------------2--------------------2-2------------------2--
 ------------------2-2---------------------2--------------------2-2------------------2--
 ------------------0-0---------------------0--------------------0-0------------------0--
 -2h3p2p0--2h3p2p0-------2h3p2p0--2h3p2p00----2h3p2p0--2h3p2p0------2h3p2p0--2h3p2p0----

Mortal eyes, looking through a veal of dreams, hypnotised, an ever living soul with
wings
[A5] [A5] [A5] [A5] [A5] [G5] [D5] 
 
 --------------------------------------------------------------------------------
 ------------------2-2---------------------2--------------------2-2--------------
 ------------------2-2---------------------2--------------------2-2--------0-----
 ------------------2-2---------------------2--------------------2-2------0----7--
 ------------------0-0---------------------0--------------------0-0----2------5--
 -2h3p2p0--2h3p2p0-------2h3p2p0--2h3p2p00----2h3p2p0--2h3p2p0-------3-----------

Think you're God, but you never had control. Think you're loved, but there's no one
there at all.
CHOURSE (.28) D arpegio A arpegio
 
 ----------------------------------------------------------------------------
 ------------------------------7---------------------------------------------
 -----------------------------7------------------2---------------------------
 ----------------------------7------------------2----------------------------
 --2------------------------5------------------0-----------------------------

My colour's all run dry, and now I see the world in black and white
D arpegio A arpegio
 
 ----------------------------------------------------------------------
 -----------------------------------7----------------------------------
 ----------------------2p1---------7---------------2-------------------
 -------------------2-4---2-------7---------------2--------------------
 --------------------------------5---------------0---------------------
 --------------------------------------------------------------(12)\---

It's too late now, It's time to kiss the Rainbow good bye!
[A5] [A5] [A5] [A5] [A5] [A5] 
 
 ---------------------------------------------------------------------------------------
 ------------------2-2---------------------2--------------------2-2------------------2--
 ------------------2-2---------------------2--------------------2-2------------------2--
 ------------------2-2---------------------2--------------------2-2------------------2--
 ------------------0-0---------------------0--------------------0-0------------------0--
 -2h3p2p0--2h3p2p0-------2h3p2p0--2h3p2p00----2h3p2p0--2h3p2p0------2h3p2p0--2h3p2p0----

[A5] [A5] [A5] [A5] [A5] [D] 
 
 ------------------------------------------------------------------------------------2--
 ------------------2-2---------------------2--------------------2-2------------------3--
 ------------------2-2---------------------2--------------------2-2------------------2--
 ------------------2-2---------------------2--------------------2-2---------------------
 ------------------0-0---------------------0--------------------0-0---------------------
 -2h3p2p0--2h3p2p0-------2h3p2p0--2h3p2p00----2h3p2p0--2h3p2p0------2h3p2p0--2h3p2p0----

[A5] [A5] [A5] [A5] [A5] [A5] 
 
 ---------------------------------------------------------------------------------------
 ------------------2-2---------------------2--------------------2-2------------------2--
 ------------------2-2---------------------2--------------------2-2------------------2--
 ------------------2-2---------------------2--------------------2-2------------------2--
 ------------------0-0---------------------0--------------------0-0------------------0--
 -2h3p2p0--2h3p2p0-------2h3p2p0--2h3p2p00----2h3p2p0--2h3p2p0------2h3p2p0--2h3p2p0----

Poison tears running down a palsied face, Satan nears, decending on the human race,
[A5] [A5] [A5] [A5] [A5] [G5] [D5] 
 
 --------------------------------------------------------------------------------
 ------------------2-2---------------------2--------------------2-2--------------
 ------------------2-2---------------------2--------------------2-2--------0-----
 ------------------2-2---------------------2--------------------2-2------0----7--
 ------------------0-0---------------------0--------------------0-0----2------5--
 -2h3p2p0--2h3p2p0-------2h3p2p0--2h3p2p00----2h3p2p0--2h3p2p0-------3-----------

Think you're God, don't you wish you had control. Think you're loved, but there's
no one there at all.
CHOURSE (1:14) D arpegio A arpegio
 
 ----------------------------------------------------------------------------
 ------------------------------7---------------------------------------------
 -----------------------------7------------------2---------------------------
 ----------------------------7------------------2----------------------------
 --2------------------------5------------------0-----------------------------

My colour's all run dry, and now I see the world in black and white
D arpegio A5 A5 A5 A5
 
 -------------------------------------------------------------------------
 -----------------------------------7-------------------------------------
 ----------------------2p1---------7--------------------------------------
 -------------------2-4---2-------7----------------2-----2-----2----2-----
 --------------------------------5-----------------0-----0-----0----0-----
 ------------------------------------------(12)\3----3~---3~-----3~---3~--

It's too late now, It's time to kiss the Rainbow good bye!
BRIDGE (1:31)
E5 D5 E5 E5 D5\(Gsus2)
 
 ------------------------------------------------------------------------
 ------------------------------------------------------------------------
 ----------------------------------------------------------------7\(3)---
 --------------------------9--7--9----------------------------9--7\(3)---
 --------------------------7--5--7----------------------------7--5-------
 -3(^4)p0-0-0-0--3^(4)p0-0----------3(^4))p0-0-0-0--3^(4)p0-0------------

E5 D5 E5 E5 Esus2\(Gsus2)
 
 ----------------------------------------------------------------------------
 ---------------------------------------------------------------------7\(3)--
 ---------------------------------------------------------------------7\(3)--
 --------------------------9-9-7--9-----------------------------------7\(3)--
 --------------------------7-7-5--7-----------------------------7-7h9--------
 -3(^4)p0-0-0-0--3^(4)p0-0-----------3(^44)p0-0-0-0--3^(4)p0-0---------------

E5 D5 E5 E5 E5 D5\(Gsus2)
 
 --------------------------------------------------------------------------
 --------------------------------------------------------------------------
 ------------------------------------------------------------------7\(3)---
 --------------------------9-9-7--9----------------------------9-9-7\(3)---
 --------------------------7-7-5--7----------------------------7-7-5-------
 -3(^4)p0-0-0-0--3^(4)p0-0----------3(^4))p0-0-0-0--3^(4)p0-0--------------

Listen to the wind, hear the Gospel blow
E5 D5 E5 E5 Esus2\(Gsus2)
 
 ----------------------------------------------------------------------------
 ---------------------------------------------------------------------7\(3)--
 ---------------------------------------------------------------------7\(3)--
 --------------------------9-9-7--9-----------------------------------7\(3)--
 --------------------------7-7-5--7-----------------------------7-7h9--------
 -3(^4)p0-0-0-0--3^(4)p0-0-----------3(^44)p0-0-0-0--3^(4)p0-0---------------

Tell me that you don't hear what I hearin' and I will let you go
E5 D5 E5 E5 E5 D5\(Gsus2)
 
 --------------------------------------------------------------------------
 --------------------------------------------------------------------------
 ------------------------------------------------------------------7\(3)---
 --------------------------9-9-7--9----------------------------9-9-7\(3)---
 --------------------------7-7-5--7----------------------------7-7-5-------
 -3(^4)p0-0-0-0--3^(4)p0-0----------3(^4))p0-0-0-0--3^(4)p0-0--------------

Look up to the skies, put your trust in me
E5 D5 E5 E5 Esus2\(Gsus2)
 
 ----------------------------------------------------------------------------
 ---------------------------------------------------------------------7\(3)--
 ---------------------------------------------------------------------7\(3)--
 --------------------------9-9-7--9-----------------------------------7\(3)--
 --------------------------7-7-5--7-----------------------------7-7h9--------
 -3(^4)p0-0-0-0--3^(4)p0-0-----------3(^44)p0-0-0-0--3^(4)p0-0---------------

Tell me that you ain't feelin' what I'm fellin' and I will set you free
CHOURSE/BRIDGE (1:59)
E5 E5 D arpegio A5 A5 A5 A5
 
 -------------------------------------------------------------------
 ------------------------------7------------------------------------
 -----------------------------7-------------------------------------
 ----------------------------7--------------2-----2-----2----2------
 --2--2---------------------5---------------0-----0-----0----0------
 --0--0----------------------------(12)\33----3~---3~-----3~---3~---

Alright!
E5 D5 E5 E5 D5\(Gsus2)
 
 ------------------------------------------------------------------------
 ------------------------------------------------------------------------
 ----------------------------------------------------------------7\(3)---
 --------------------------9--7--9----------------------------9--7\(3)---
 --------------------------7--5--7----------------------------7--5-------
 -3(^4)p0-0-0-0--3^(4)p0-0----------3(^4))p0-0-0-0--3^(4)p0-0------------

E5 D5 E5 E5 Esus2\(Gsus2)
 
 ----------------------------------------------------------------------------
 ---------------------------------------------------------------------7\(3)--
 ---------------------------------------------------------------------7\(3)--
 --------------------------9-9-7--9-----------------------------------7\(3)--
 --------------------------7-7-5--7-----------------------------7-7h9--------
 -3(^4)p0-0-0-0--3^(4)p0-0-----------3(^44)p0-0-0-0--3^(4)p0-0---------------

E5 D5 E5 E5 E5 D5\(Gsus2)
 
 --------------------------------------------------------------------------
 --------------------------------------------------------------------------
 ------------------------------------------------------------------7\(3)---
 --------------------------9-9-7--9----------------------------9-9-7\(3)---
 --------------------------7-7-5--7----------------------------7-7-5-------
 -3(^4)p0-0-0-0--3^(4)p0-0----------3(^4))p0-0-0-0--3^(4)p0-0--------------

Look into the flame, see the embers glow
E5 D5 E5 E5 Esus2\(Gsus2)
 
 ----------------------------------------------------------------------------
 ---------------------------------------------------------------------7\(3)--
 ---------------------------------------------------------------------7\(3)--
 --------------------------9-9-7--9-----------------------------------7\(3)--
 --------------------------7-7-5--7-----------------------------7-7h9--------
 -3(^4)p0-0-0-0--3^(4)p0-0-----------3(^44)p0-0-0-0--3^(4)p0-0---------------

Tell me that you don't see what I seein' and I will let you go
E5 D5 E5 E5 E5 D5\(Gsus2)
 
 --------------------------------------------------------------------------
 --------------------------------------------------------------------------
 ------------------------------------------------------------------7\(3)---
 --------------------------9-9-7--9----------------------------9-9-7\(3)---
 --------------------------7-7-5--7----------------------------7-7-5-------
 -3(^4)p0-0-0-0--3^(4)p0-0----------3(^4))p0-0-0-0--3^(4)p0-0--------------

Taste the Holy Blood, running through my veins
E5 D5 E5 E5 Esus2\(Gsus2)
 
 ----------------------------------------------------------------------------
 ---------------------------------------------------------------------7\(3)--
 ---------------------------------------------------------------------7\(3)--
 --------------------------9-9-7--9-----------------------------------7\(3)--
 --------------------------7-7-5--7-----------------------------7-7h9--------
 -3(^4)p0-0-0-0--3^(4)p0-0-----------3(^44)p0-0-0-0--3^(4)p0-0---------------

Tell me that you don't feel what I'm fellin' and I'll take away the pain
CHOURSE (2:35) D arpegio A arpegio
 
 ---------------------------------------------------------------------
 ------------------------------7--------------------------------------
 -----------------------------7------------------2--------------------
 ----------------------------7------------------2---------------------
 --2------------------------5------------------0----------------------
 --0----------------------------------------------------3^(4r0)-------

Yes I will, now Oh yes I will, ohh, ohh, ohh
D arpegio A5 arpegio
 
 -----------------------------------------------------
 -----------------------------------7-----------------
 ----------------------2p1---------7--------------2---
 -------------------2-4---2-------7--------------2----
 --------------------------------5--------------0-----
 -----------------------------------------------------

Ohh, ohh It's time to kiss the Rainbow good bye!
[A5] [A5] [A5] [A5] [A5] [A5] 
 
 ---------------------------------------------------------------------------------------
 ------------------2-2---------------------2--------------------2-2------------------2--
 ------------------2-2---------------------2--------------------2-2------------------2--
 ------------------2-2---------------------2--------------------2-2------------------2--
 ------------------0-0---------------------0--------------------0-0------------------0--
 -2h3p2p0--2h3p2p0-------2h3p2p0--2h3p2p00----2h3p2p0--2h3p2p0------2h3p2p0--2h3p2p0----

[A5] [A5] [A5] [A5] [A5] [G5] [D] 
 
 ---------------------------------------------------------------------------------
 ------------------2-2---------------------2--------------------2-2---------------
 ------------------2-2---------------------2--------------------2-2--------0--7---
 ------------------2-2---------------------2--------------------2-2------0----7---
 ------------------0-0---------------------0--------------------0-0----2------5---
 -2h3p2p0--2h3p2p0-------2h3p2p0--2h3p2p00----2h3p2p0--2h3p2p0-------3------------


Important: The song above is NOT stored on the Chordie server. The original song is hosted at www.xguitar.com. Chordie works as a search engine and provides on-the-fly formatting. Chordie does not index songs against artists'/composers' will. To remove this song please click here.

Text color:
Chord color:
Chord grids: 
Font size:    
Page size: 

A5 D D5 G5
Rate #2 of 3 versions

Jango Player

Login - add to songbook

SHARE PAGE  




You need to log in to post comments