Guitar Tabs, Chords and Lyrics
Update 25:10. 13:00. Site is back up running again. Songbooks are recovered. Woring on getting search back up..


I  Black Sabbath

Started:
Finished: 5:20 AM (PST) 4/28/98
Black Sabbath - I
From Black Sabbath's "Dehumanizer" Album 1992
Tuning Info: 4/4 count
NOTE:Lyrics written here may not align with music, due to space constraints.
[E5]  
 
 ---------------------------------------------------------------------
 ---------------------------------------------------------------------
 ---9-----------------------------------------------------------------
 ---9--------------5----------------------------5---------------------
 ---7------------5---7------------------------5---7-------------------
 ----------(5)/7--------0--(5)/7-5-3-0--(5)/7--------0--(5)/7-5-3-0---

 
 -----------------------------------------------------------
 -----------------------------------------------------------
 -----------------------------------------------------------
 ---------5----------------------------5--------------------
 -------5---7------------------------5---7------------------
 -(5)/7--------0--(5)/7-5-3-0--(5)/7--------0--(5)-7-5-3-0--

Oo o o o Oo o o o Hm m m
[E5] [D5/E5] [E5] [D5/E5] [E5] [D5/E5] [D5/E5] [E5] [D5/E5] [Dsus] [Esus] 
 
 -----------------------------------------------------------
 -----------------------------------------------------------
 ---9--------------------------------------------12-14~-----
 ---9----7/9-9999-7/9-999-7/9-99-7/9-9999-7/9-99-12-14~-----
 ---7----5/7-7777-5/7-777-5/7-77-5/7-7777-5/7-77------------
 -----------------------------------------------------------

[D5/E5] [E5] [D5/E5] [E5] [D5/E5] [D5/E5] [E5] [D5/E5] [Dsus] [Esus] 
 
 ----------------------------------------------------
 ----------------------------------------------------
 -----------------------------------------12-14~-----
 -7/9-9999-7/9-999-7/9-99-7/9-9999-7/9-99-12-14~-----
 -5/7-7777-5/7-777-5/7-77-5/7-7777-5/7-77------------
 ----------------------------------------------------

I am
[D5/E5] [E5] [D5/E5] [E5] [D5/E5] [D5/E5] [E5] [D5/E5] [Dsus] [Esus] 
 
 ----------------------------------------------------
 ----------------------------------------------------
 -----------------------------------------12-14~-----
 -7/9-9999-7/9-999-7/9-99-7/9-9999-7/9-99-12-14~-----
 -5/7-7777-5/7-777-5/7-77-5/7-7777-5/7-77------------
 ----------------------------------------------------

anger under pressure Left in
[D5/E5] [E5] [D5/E5] [E5] [D5/E5] [D5/E5] [E5] [D5/E5] [Dsus] [Esus] 
 
 ----------------------------------------------------
 ----------------------------------------------------
 -----------------------------------------12-14~-----
 -7/9-9999-7/9-999-7/9-99-7/9-9999-7/9-99-12-14~-----
 -5/7-7777-5/7-777-5/7-77-5/7-7777-5/7-77------------
 ----------------------------------------------------

cages a prisoner, the first to escape. I am
[D5/E5] [E5] [D5/E5] [E5] [D5/E5] [D5/E5] [E5] [D5/E5] [Dsus] [Esus] 
 
 ----------------------------------------------------
 ----------------------------------------------------
 -----------------------------------------12-14~-----
 -7/9-9999-7/9-999-7/9-99-7/9-9999-7/9-99-12-14~-----
 -5/7-7777-5/7-777-5/7-77-5/7-7777-5/7-77------------
 ----------------------------------------------------

wicked. I am legion. Strength in
[D5/E5] [E5] [D5/E5] [E5] [D5/E5] [D5/E5] [E5] [D5/E5] [Dsus] [Esus] 
 
 ----------------------------------------------------
 ----------------------------------------------------
 -----------------------------------------12-14------
 -7/9-9999-7/9-999-7/9-99-7/9-9999-7/9-99-12-14------
 -5/7-7777-5/7-777-5/7-77-5/7-7777-5/7-77------------
 ----------------------------------------------------

numbers, a lie. The number is one.
CHORUS
E5 D5/E5 C DsushEsus D5/G5 D5/E5 C
 
 ----------------------------------------------------------
 ----------------------------------------------------------
 -------------9---12h14------------------------------------
 -9-----7/9--10---12h14--7/12--9-----7/9--10---------------
 -7-----5/7--10----------5/10--7-----5/7--10---------------
 -------------8----------------------------8---------------

I I I Everything I see is for me
[D5/E5] [E5] [D5/E5] [E5] [D5/E5] [D5/E5] [E5] [D5/E5] [Dsus] [Esus] 
 
 ----------------------------------------------------
 ----------------------------------------------------
 -----------------------------------------12-14~-----
 -7/9-9999-7/9-999-7/9-99-7/9-9999-7/9-99-12-14~-----
 -5/7-7777-5/7-777-5/7-77-5/7-7777-5/7-77------------
 ----------------------------------------------------

Yes, I am giant. I'm a monster. Breaking
[D5/E5] [E5] [D5/E5] [E5] [D5/E5] [D5/E5] [E5] [D5/E5] [Dsus] [Esus] 
 
 ----------------------------------------------------
 ----------------------------------------------------
 -----------------------------------------12-14~-----
 -7/9-9999-7/9-999-7/9-99-7/9-9999-7/9-99-12-14~-----
 -5/7-7777-5/7-777-5/7-77-5/7-7777-5/7-77------------
 ----------------------------------------------------

windows in houses, buildings of glass. Rebel, rebel
[D5/E5] [E5] [D5/E5] [E5] [D5/E5] [D5/E5] [E5] [D5/E5] [Dsus] [Esus] 
 
 ----------------------------------------------------
 ----------------------------------------------------
 -----------------------------------------12-14~-----
 -7/9-9999-7/9-999-7/9-99-7/9-9999-7/9-99-12-14~-----
 -5/7-7777-5/7-777-5/7-77-5/7-7777-5/7-77------------
 ----------------------------------------------------

Holy outlaw. Ride together, don't try it. The power's in one.
CHORUS
E5 D5/E5 C DsushEsus D5/G5 D5/E5 C
 
 ----------------------------------------------------------
 ----------------------------------------------------------
 -------------9---12h14------------------------------------
 -9-----7/9--10---12h14--7/12--9-----7/9--10---------------
 -7-----5/7--10----------5/10--7-----5/7--10---------------
 -------------8----------------------------8-----7-5-3-0---

I I I I am standing alone but I can rock you
E5 D5/E5 C DsushEsus D5/G5 D5/E5 C
 
 ----------------------------------------------------------
 ----------------------------------------------------------
 -------------9---12h14------------------------------------
 -9-----7/9--10---12h14--7/12--9-----7/9--10---------------
 -7-----5/7--10----------5/10--7-----5/7--10---------------
 -------------8----------------------------8----7-5-3-0----

I I I On the edge of the blade, but the knife
can't cut the hero down
[E5] [D#5] [F5] [E5] [E5] [D#5] [E5] [D#5] [F5] [E5] [E5] 
 
 --------------------------------------------------------------
 --------------------------------------------------------------
 --------------------------------------------------------------
 -9\8-x-x-10\9-x-x-9\8-------------9-8-x-x-10-9-x-x-9----------
 -7\6-x-x--8\7-x-x-7\6---7---------7-6-x-x--8-7-x-x-7\6---7----
 ---------------------7-6--5~\(3)----------------------7-6--5~-
 --------------------------------------------------------------
 --------------------------------------------------------------
 --------------------------------------------------------------
 -9-8-x-x-10-9-x-x-9--------------9-8-x-x-10-9-x-x-9-----------
 -7-6-x-x--8-7-x-x-7\6---7---------7-6-x-x--8-7-x-x-7\6---7----
 ---------------------7-6--5~\(3)----------------------7-6--5~-

 
 -----------------------------------------------------------
 -----------------------------------------------------------
 -----------------------------------------------------------
 ---------5----------------------------5--------------------
 -------5---7------------------------5---7------------------
 -(5)/7--------0--(5)/7-5-3-0--(5)/7--------0--(5)-7-5-3-0--

 
 ----------------------------------------------------------------------------
 ----------------------------------------------------------------------------
 --------------------------14^(16)-12----------------------------------------
 ----------------------------------------------------------------------------
 ----------------------------------------------------------------------------
 ----------------------------------------------------------------------------

 
 -----------------------------------------------------------
 -----------------------------------------------------------
 -----------------------------------------------------------
 ---------5----------------------------5--------------------
 -------5---7------------------------5---7------------------
 -(5)/7--------0--(5)/7-5-3-0--(5)/7--------0--(5)-7-5-3-0--

LEAD
 
 --------------------------------------------------------17^19`17-------------
 -12-12\(9)-xx-xx-12\(9)-17~~17p15h17~~~17p15h17~~~17p15---------17-15--------
 -12-12\(9)-xx-xx-12\(9)------------------------------------------------------
 -12-12\(9)-xx-xx-12\(9)----------------------------------------------17~/(21)
 -----------------------------------------------------------------------------
 -----------------------------------------------------------------------------

(Guitar 1)
[D5/E5] [E5] [D5/E5] [E5] [D5/E5] [D5/E5] [E5] [D5/E5] [Dsus] [Esus] 
 
 ----------------------------------------------------
 ----------------------------------------------------
 -----------------------------------------12-14~-----
 -7/9-9999-7/9-999-7/9-99-7/9-9999-7/9-99-12-14~-----
 -5/7-7777-5/7-777-5/7-77-5/7-7777-5/7-77------------
 ----------------------------------------------------

(Guitar 2)
 
 --------------------------------------------------------------15-18^(20)--
 -12------------------------------------------------------15h18------------
 ---14-14p12--12-14p12--12-14p12------------------12h14/17-----------------
 -----------14--------14--------14p12--------12h14-------------------------
 ------------------------------------14-12h14------------------------------
 --------------------------------------------------------------------------

(Guitar 1)
[D5/E5] [E5] [D5/E5] [E5] [D5/E5] [D5/E5] [E5] [D5/E5] [Dsus] [Esus] 
 
 ----------------------------------------------------
 ----------------------------------------------------
 -----------------------------------------12-14~-----
 -7/9-9999-7/9-999-7/9-99-7/9-9999-7/9-99-12-14~-----
 -5/7-7777-5/7-777-5/7-77-5/7-7777-5/7-77------------
 ----------------------------------------------------

(Guitar 2)
 
 -15h18p15--------------------------------------------------------------------
 ---------17-15-17~-xx--------12----------------------------------------------
 -------------------xx-14^(16)--14-(14/16\10)-12------------------------------
 ------------------------------------------------(12H14 tr~~)-12~---12--------
 -----------------------------------------------------------------14--14\(8)--
 -----------------------------------------------------------------------------

(Guitar 1)
[D5/E5] [E5] [D5/E5] [E5] [D5/E5] [D5/E5] [E5] [D5/E5] [Dsus] [Esus] 
 
 ----------------------------------------------------
 ----------------------------------------------------
 -----------------------------------------12-14~-----
 -7/9-9999-7/9-999-7/9-99-7/9-9999-7/9-99-12-14~-----
 -5/7-7777-5/7-777-5/7-77-5/7-7777-5/7-77------------
 ----------------------------------------------------

(Guitar 2)
 
 -------------------------------------17^(19)-17p15-18^(20`18)17p15----
 ---------------------------17~--17p15---------------------------------
 ------------12-14^(16`14)12-------------------------------------------
 -------12-14----------------------------------------------------------
 -(9)/14---------------------------------------------------------------
 ----------------------------------------------------------------------

(Guitar 1)
E5 D5/E5 C DsushEsus D5/G5 D5/E5 C
 
 ----------------------------------------------------------
 ----------------------------------------------------------
 -------------9---12h14------------------------------------
 -9-----7/9--10---12h14--7/12--9-----7/9--10---------------
 -7-----5/7--10----------5/10--7-----5/7--10---------------
 -------------8----------------------------8-----7-5-3-0---

(Guitar2)
 
 ------------18~--18-18\-15-15-15-15-15\-12-12-12-12-12\-9-9-9-9-9\(3)-
 18^(20-20`18)---------------------------------------------------------
 ----------------------------------------------------------------------
 ----------------------------------------------------------------------
 ----------------------------------------------------------------------
 ----------------------------------------------------------------------

(Guitar 1)
[D5/E5] [E5] [D5/E5] [E5] [D5/E5] [D5/E5] [E5] [D5/E5] [Dsus] [Esus] 
 
 ----------------------------------------------------
 ----------------------------------------------------
 -----------------------------------------12-14~-----
 -7/9-9999-7/9-999-7/9-99-7/9-9999-7/9-99-12-14~-----
 -5/7-7777-5/7-777-5/7-77-5/7-7777-5/7-77------------
 ----------------------------------------------------

I am virgin. I'm a whore. Giving
 
 -------------------------------------------------------------------
 --(12/)-15~~-------------17~~~--------15~~~~~----------------------
 -------------------------------------------------------------------
 -------------------------------------------------------------------
 -------------------------------------------------------------------
 -------------------------------------------------------------------

(Background Guitar Lead)
[D5/E5] [E5] [D5/E5] [E5] [D5/E5] [D5/E5] [E5] [D5/E5] [Dsus] [Esus] 
 
 ----------------------------------------------------
 ----------------------------------------------------
 -----------------------------------------12-14~-----
 -7/9-9999-7/9-999-7/9-99-7/9-9999-7/9-99-12-14~-----
 -5/7-7777-5/7-777-5/7-77-5/7-7777-5/7-77------------
 ----------------------------------------------------

nothing, the taker, the maker of war. I'll smash
 
 -------------------------------------------------------------------
 -------------------------------------------------------------------
 -------------12~~~~------------------------------------------------
 -------------------------------------------------------------------
 -------------------------------------------------------------------
 -------------------------------------------------------------------

(Background Guitar Lead)
[D5/E5] [E5] [D5/E5] [E5] [D5/E5] [D5/E5] [E5] [D5/E5] [Dsus] [Esus] 
 
 ----------------------------------------------------
 ----------------------------------------------------
 -----------------------------------------12-14~-----
 -7/9-9999-7/9-999-7/9-99-7/9-9999-7/9-99-12-14~-----
 -5/7-7777-5/7-777-5/7-77-5/7-7777-5/7-77------------
 ----------------------------------------------------

your face in, but with a smile. All together
 
 -------------------------------------------------------------------
 --------------15~~--17p15h17~~----------17p15h17~~-15p12h15~~------
 -------------------------------------------------------------------
 -------------------------------------------------------------------
 -------------------------------------------------------------------
 -------------------------------------------------------------------

(Background Guitar Lead)
[D5/E5] [E5] [D5/E5] [E5] [D5/E5] [D5/E5] [E5] [D5/E5] [Dsus] [Esus] 
 
 ----------------------------------------------------
 ----------------------------------------------------
 -----------------------------------------12-14~-----
 -7/9-9999-7/9-999-7/9-99-7/9-9999-7/9-99-12-14~-----
 -5/7-7777-5/7-777-5/7-77-5/7-7777-5/7-77------------
 ----------------------------------------------------

you'll never be stronger than me.
 
 -------------------------------------------------------------------
 -------------------------------------------------------------------
 -14p12h14~~------------------14p12---------------------------------
 ----------------------------------14~~-----------------------------
 -------------------------------------------------------------------
 -------------------------------------------------------------------

(Background Guitar Lead)
CHORUS
E5 D5/E5 C DsushEsus D5/G5 D5/E5 C
 
 ----------------------------------------------------------
 ----------------------------------------------------------
 -------------9---12h14------------------------------------
 -9-----7/9--10---12h14--7/12--9-----7/9--10---------------
 -7-----5/7--10----------5/10--7-----5/7--10---------------
 -------------8----------------------------8-----7-5-3-0---

I I I Right here on my own, but I still rock you
E5 D5/E5 C DsushEsus D5/G5 D5/E5 C
 
 ----------------------------------------------------------
 ----------------------------------------------------------
 -------------9---12h14------------------------------------
 -9-----7/9--10---12h14--7/12--9-----7/9--10---------------
 -7-----5/7--10----------5/10--7-----5/7--10---------------
 -------------8----------------------------8----7-5-3-0----

I I I Don't follow behind, just leave me on the other
side
 
 -------------------------------------------------------------------
 -------------------------------------------------------------------
 -------------------------------------------------------------------
 -------------------------------------------------------------------
 -------------------------------------------------------------------
 -------------------------------------------------------------------

(Background Guitar Lead)
E5 D5/E5 C DsushEsus D5/G5 D5/E5 C
 
 ----------------------------------------------------------
 ----------------------------------------------------------
 -------------9---12h14------------------------------------
 -9-----7/9--10---12h14--7/12--9-----7/9--10---------------
 -7-----5/7--10----------5/10--7-----5/7--10---------------
 -------------8----------------------------8----7-5-3-0----

I I I I am standing alone, but I can shock you.
E5 D5/E5 C DsushEsus D5/G5 D5/E5 C
 
 ----------------------------------------------------------
 ----------------------------------------------------------
 -------------9---12h14------------------------------------
 -9-----7/9--10---12h14--7/12--9-----7/9--10---------------
 -7-----5/7--10----------5/10--7-----5/7--10---------------
 -------------8----------------------------8----7-5-3-0----

I I I On the edge of the blade, but no one makes the hero
bleed
[D5/E5] [E5] [D5/E5] [E5] [D5/E5] [D5/E5] [E5] [D5/E5] [Dsus] [Esus] 
 
 ----------------------------------------------------
 ----------------------------------------------------
 -----------------------------------------12-14~-----
 -7/9-9999-7/9-999-7/9-99-7/9-9999-7/9-99-12-14~-----
 -5/7-7777-5/7-777-5/7-77-5/7-7777-5/7-77------------
 ----------------------------------------------------

No No No
[D5/E5] [E5] [D5/E5] [E5] [D5/E5] [D5/E5] [E5] [D5/E5] [Dsus] [Esus] 
 
 ----------------------------------------------------
 ----------------------------------------------------
 -----------------------------------------12-14~-----
 -7/9-9999-7/9-999-7/9-99-7/9-9999-7/9-99-12-14~-----
 -5/7-7777-5/7-777-5/7-77-5/7-7777-5/7-77------------
 ----------------------------------------------------

No No No
[D5/E5] [E5] [D5/E5] [E5] [D5/E5] [D5/E5] [E5] [D5/E5] [Dsus] [Esus] 
 
 ----------------------------------------------------
 ----------------------------------------------------
 -----------------------------------------12-14~-----
 -7/9-9999-7/9-999-7/9-99-7/9-9999-7/9-99-12-14~-----
 -5/7-7777-5/7-777-5/7-77-5/7-7777-5/7-77------------
 ----------------------------------------------------

I am hunger No No No
[D5/E5] [E5] [D5/E5] [E5] [D5/E5] [D5/E5] [E5] [D5/E5] [Dsus] [Esus] 
 
 ----------------------------------------------------
 ----------------------------------------------------
 -----------------------------------------12-14~-----
 -7/9-9999-7/9-999-7/9-99-7/9-9999-7/9-99-12-14~-----
 -5/7-7777-5/7-777-5/7-77-5/7-7777-5/7-77------------
 ----------------------------------------------------

Feed my head No No No
[D5/E5] [E5] [D5/E5] [E5] [D5/E5] [D5/E5] [E5] [D5/E5] [Dsus] [Esus] 
 
 ----------------------------------------------------
 ----------------------------------------------------
 -----------------------------------------12-14~-----
 -7/9-9999-7/9-999-7/9-99-7/9-9999-7/9-99-12-14~-----
 -5/7-7777-5/7-777-5/7-77-5/7-7777-5/7-77------------
 ----------------------------------------------------

All together, you'll never, never make the hero bleed
[D5/E5] [E5] [D5/E5] [E5] [D5/E5] [D5/E5] [E5] [D5/E5] [Dsus] [Esus] 
 
 ----------------------------------------------------
 ----------------------------------------------------
 -----------------------------------------12-14~-----
 -7/9-9999-7/9-999-7/9-99-7/9-9999-7/9-99-12-14~-----
 -5/7-7777-5/7-777-5/7-77-5/7-7777-5/7-77------------
 ----------------------------------------------------

No No No
 
 -------------------------------------------------------------------
 -------------------------------------------------------------------
 -------------------------------------------------------------------
 -------------------------------------------------------------------
 -------------------------------------------------------------------
 -------------------------------------------------------------------

(Background Guitar Lead)
 
 -------------------------------------------------------------------
 -------------------------------------------------------------------
 -------------------------------------------------------------------
 -------------------------------------------------------------------
 -------------------------------------------------------------------
 -------------------------------------------------------------------


Important: The song above is NOT stored on the Chordie server. The original song is hosted at www.xguitar.com. Chordie works as a search engine and provides on-the-fly formatting. Chordie does not index songs against artists'/composers' will. To remove this song please click here.

Text color:
Chord color:
Chord grids: 
Font size:    
Page size: 

D#5 Dsus E5 Esus F5
Rate #2 of 3 versions

Jango Player

Login - add to songbook

SHARE PAGE  



You need to log in to post comments