Guitar Tabs, Chords and Lyrics
Major upgrade!! After one year development the new version of Chordie is now online! Please give feedback.


Solitude  Black Sabbath

Started:
Finished: 1:17 AM 12/25/97
Updated: 14:13 2/13/01
Black Sabbath - Solitude
From Black Sabbath's "Master of Reality" July 1976
Tuning Info: Tune to C#, Andagio, 74 beats/min., 4/4 count
 
 --------------------------------------------------------
 ------6------------------6--------6----------------6----
 -----6--8--6h8p6--------6--8-----6--8---6h8p6-----6--8--
 --8--------------8----8-------8--------------8--8-------
 --------------------------------------------------------
 --------------------------------------------------------

 
 8-h-9-p-8---8-8----8-h-9-p-8---8-8----
 ----------9------------------9--------
 --------------------------------------
 --------------------------------------
 --------------------------------------
 --------------------------------------
 -----------------------------------------
 ------6------------------6---------------
 -----6--8--6h8p6--------6--8--6h8p6------
 --8--------------8----8-------------8----
 -----------------------------------------
 -----------------------------------------

[A#] [A#] [A#] [A#] [G#] [G#] [G#] [G#] [A#] [A#] [A#] [A#] [G#] [G#] [G#] [G#] 
 
 ------6--6--6--6-------4-4--4--4--------6--6--6--6-------4--4--4--4--
 -----6---6--6--6------4--4--4--4------66---6--6--6------4---4--4--4--
 ----7----7--7--7-----5---5--5--5-----7-----7--7--7-----5----5--5--5--
 ---8-----8--8--8----6----6--6--6----8------8--8--8----6-----6--6--6--
 --8------8--8--8---6-----6--6--6---8-------8--8--8---6------6--6--6--
 -6-------6--6--6--4------4--4--4--6--------6--6--6--4-------4--4--4--

[A#] [A#] [A#] [A#] [G#] [G#] [G#] [G#] [A#] [A#] [A#] [A#] [G#] [G#] [G#] [G#] 
 
 ------6--6--6--6-------4-4--4--4--------6--6--6--6-------4--4--4--4--
 -----6---6--6--6------4--4--4--4------66---6--6--6------4---4--4--4--
 ----7----7--7--7-----5---5--5--5-----7-----7--7--7-----5----5--5--5--
 ---8-----8--8--8----6----6--6--6----8------8--8--8----6-----6--6--6--
 --8------8--8--8---6-----6--6--6---8-------8--8--8---6------6--6--6--
 -6-------6--6--6--4------4--4--4--6--------6--6--6--4-------4--4--4--

My name, it means nothing. My fortune is less.
 
 ----------------------------------------------------------------------
 ---------------------------------------------9h11p9-11----9h11p9------
 -----------------------------------------------------------------10---
 ----------------------------------------------------------------------
 ----------------------------------------------------------------------
 ----------------------------------------------------------------------

[A#] [A#] [A#] [A#] [G#] [G#] [G#] [G#] [A#] [A#] [A#] [A#] [G#] [G#] [G#] [G#] 
 
 ------6--6--6--6-------4-4--4--4--------6--6--6--6-------4--4--4--4--
 -----6---6--6--6------4--4--4--4------66---6--6--6------4---4--4--4--
 ----7----7--7--7-----5---5--5--5-----7-----7--7--7-----5----5--5--5--
 ---8-----8--8--8----6----6--6--6----8------8--8--8----6-----6--6--6--
 --8------8--8--8---6-----6--6--6---8-------8--8--8---6------6--6--6--
 -6-------6--6--6--4------4--4--4--6--------6--6--6--4-------4--4--4--

My future is shrouded in dark wilderness.
 
 ---------------------------------------------8----------------------
 -----------------------------------------------11-9-----9h11p9-11---
 --------------------------------------------------------------------
 --------------------------------------------------------------------
 --------------------------------------------------------------------
 --------------------------------------------------------------------

[A#] [A#] [A#] [A#] [G#] [G#] [G#] [G#] [A#] [A#] [A#] [A#] [G#] [G#] [G#] [G#] 
 
 ------6--6--6--6-------4-4--4--4--------6--6--6--6-------4--4--4--4--
 -----6---6--6--6------4--4--4--4------66---6--6--6------4---4--4--4--
 ----7----7--7--7-----5---5--5--5-----7-----7--7--7-----5----5--5--5--
 ---8-----8--8--8----6----6--6--6----8------8--8--8----6-----6--6--6--
 --8------8--8--8---6-----6--6--6---8-------8--8--8---6------6--6--6--
 -6-------6--6--6--4------4--4--4--6--------6--6--6--4-------4--4--4--

Sunshine is far away, clouds linger on
 
 ------------------------------------------------------------------------
 ------------------------------------------------9h11--11p9--------9h11--
 -------------------------------------------8h10-----------10--8h10------
 ------------------------------------------------------------------------
 ------------------------------------------------------------------------
 ------------------------------------------------------------------------

[A#] [A#] [A#] [A#] [G#] [G#] [G#] [G#] [A#] [A#] [A#] [A#] [G#] [G#] [G#] [G#] 
 
 ------6--6--6--6-------4-4--4--4--------6--6--6--6-------4--4--4--4--
 -----6---6--6--6------4--4--4--4------66---6--6--6------4---4--4--4--
 ----7----7--7--7-----5---5--5--5-----7-----7--7--7-----5----5--5--5--
 ---8-----8--8--8----6----6--6--6----8------8--8--8----6-----6--6--6--
 --8------8--8--8---6-----6--6--6---8-------8--8--8---6------6--6--6--
 -6-------6--6--6--4------4--4--4--6--------6--6--6--4-------4--4--4--

Every thing I possesed, now they are gone. They are gone, they are gone.
 
 --------------------------------------------------8------8-----------------
 ---------------------------------------------------11------11---9h11p9-----
 -----------------------------------------------10------10--------------10--
 ---------------------------------------------------------------------------
 ---------------------------------------------------------------------------
 ---------------------------------------------------------------------------

 
 ------------------------------------------------------------------
 -----6------------------6--------6-----------------6--------------
 -------8--6h8p6--------6--8~----6--8--66h8p6------6--8--6h8p6-----
 --8-------------8----8--------8--------------8--8-------------8-8-
 ------------------------------------------------------------------
 ------------------------------------------------------------------

[A#] [G#] [G#] [G#] [G#] [A#] [A#] [A#] [A#] [G#] [G#] [G#] [G#] 
 
 ------6-----4--4--4--4-------6--6--6--66-------4--4--4--4--
 -----6-----4---4--4--4------6---6--6--66------4---4--4--4--
 ----7-----5----5--5--5-----7----7--7--77-----5----5--5--5--
 ---8-----6-----6--6--6----8-----8--8--88----6-----6--6--6--
 --8-----6------6--6--6---8------8--8--88---6------6--6--6--
 -6-----4-------4--4--4--6-------6--6--66--4-------4--4--4--

[A#] [A#] [A#] [A#] [G#] [G#] [G#] [G#] [A#] [A#] [A#] [A#] [G#] [G#] [G#] [G#] 
 
 ------6--6--6--6-------4-4--4--4--------6--6--6--6-------4--4--4--4--
 -----6---6--6--6------4--4--4--4------66---6--6--6------4---4--4--4--
 ----7----7--7--7-----5---5--5--5-----7-----7--7--7-----5----5--5--5--
 ---8-----8--8--8----6----6--6--6----8------8--8--8----6-----6--6--6--
 --8------8--8--8---6-----6--6--6---8-------8--8--8---6------6--6--6--
 -6-------6--6--6--4------4--4--4--6--------6--6--6--4-------4--4--4--

Oh where can I go to and what can I do?
 
 ----------------------------------------------------------------------------
 ----------------------------------------------9h11-----9h11p9---------9h11--
 ------------------------------------------8h10---------------10---8h10------
 ----------------------------------------------------------------------------
 ----------------------------------------------------------------------------
 ----------------------------------------------------------------------------

[A#] [A#] [A#] [A#] [G#] [G#] [G#] [G#] [A#] [A#] [A#] [A#] [G#] [G#] [G#] [G#] 
 
 ------6--6--6--6-------4-4--4--4--------6--6--6--6-------4--4--4--4--
 -----6---6--6--6------4--4--4--4------66---6--6--6------4---4--4--4--
 ----7----7--7--7-----5---5--5--5-----7-----7--7--7-----5----5--5--5--
 ---8-----8--8--8----6----6--6--6----8------8--8--8----6-----6--6--6--
 --8------8--8--8---6-----6--6--6---8-------8--8--8---6------6--6--6--
 -6-------6--6--6--4------4--4--4--6--------6--6--6--4-------4--4--4--

Nothing can please me..only thoughts are of you
 
 --------------------------------------------------------------------------
 --------------------------------------------11-11-11---11p9---------9h11--
 -----------------------------------------------------------10---8h10------
 --------------------------------------------------------------------------
 --------------------------------------------------------------------------
 --------------------------------------------------------------------------

[A#] [A#] [A#] [A#] [G#] [G#] [G#] [G#] [A#] [A#] [A#] [A#] [G#] [G#] [G#] [G#] 
 
 ------6--6--6--6-------4-4--4--4--------6--6--6--6-------4--4--4--4--
 -----6---6--6--6------4--4--4--4------66---6--6--6------4---4--4--4--
 ----7----7--7--7-----5---5--5--5-----7-----7--7--7-----5----5--5--5--
 ---8-----8--8--8----6----6--6--6----8------8--8--8----6-----6--6--6--
 --8------8--8--8---6-----6--6--6---8-------8--8--8---6------6--6--6--
 -6-------6--6--6--4------4--4--4--6--------6--6--6--4-------4--4--4--

You just laughed when I begged you to stay
 
 ----------------------------------------------------------------------
 ---------------------------------------------11-11h13p11--------------
 ----------------------------------------------------------------------
 ----------------------------------------------------------------------
 ----------------------------------------------------------------------
 ----------------------------------------------------------------------

[A#] [A#] [A#] [A#] [G#] [G#] [G#] [G#] [A#] [A#] [A#] [A#] [G#] [G#] [G#] [G#] 
 
 ------6--6--6--6-------4-4--4--4--------6--6--6--6-------4--4--4--4--
 -----6---6--6--6------4--4--4--4------66---6--6--6------4---4--4--4--
 ----7----7--7--7-----5---5--5--5-----7-----7--7--7-----5----5--5--5--
 ---8-----8--8--8----6----6--6--6----8------8--8--8----6-----6--6--6--
 --8------8--8--8---6-----6--6--6---8-------8--8--8---6------6--6--6--
 -6-------6--6--6--4------4--4--4--6--------6--6--6--4-------4--4--4--

I've not stopped crying since you went away. You went away, you went away
 
 --------------------------------------------------8------8-----------------
 ---------------------------------------------------11------11---9h11p9-----
 -----------------------------------------------10------10--------------10--
 ---------------------------------------------------------------------------
 ---------------------------------------------------------------------------
 ---------------------------------------------------------------------------

LEAD (2:33)
 
 ----------------------------------------------------------------
 ----------------------------------------------------------------
 ------5/6-5----------------8-5------------5/6------------8-5----
 ---8--------6-6\(3)----6h8-----8------88------6-6----6-8----8---
 -8------------------6h8-------------8-------------6-8-----------
 ----------------------------------------------------------------
 -----------------------------------------------------------------
 -----------------------------------------------------------------
 -5/6-5---5/6-5--------6\5-------------55/6-5-------------8-5-----
 ------8-------8-8-6h8-----8--------8---------6-6-----6h8-----8---
 ----------------------------(6)/-8---------------6h8-------------
 -----------------------------------------------------------------

[A#] [G#] [G#] [G#] [G#] [A#] [A#] [A#] [A#] [G#] [G#] [G#] [G#] 
 
 -6-------4--4--4--4-------6--6--6--6--------4--4--4--4--
 -6------4---4--4--4------6---6--6--6-------4---4--4--4--
 -7-----5----5--5--5-----7----7--7--7------5----5--5--5--
 -8----6-----6--6--6----8-----8--8--8-----6-----6--6--6--
 -8---6------6--6--6---8------8--8--8----6------6--6--6--
 -6--4-------4--4--4--6-------6--6--6--44-------4--4--4--

[A#] [A#] [A#] [A#] [G#] [G#] [G#] [G#] [A#] [A#] [A#] [A#] [G#] [G#] [G#] [G#] 
 
 ------6--6--6--6-------4-4--4--4--------6--6--6--6-------4--4--4--4--
 -----6---6--6--6------4--4--4--4------66---6--6--6------4---4--4--4--
 ----7----7--7--7-----5---5--5--5-----7-----7--7--7-----5----5--5--5--
 ---8-----8--8--8----6----6--6--6----8------8--8--8----6-----6--6--6--
 --8------8--8--8---6-----6--6--6---8-------8--8--8---6------6--6--6--
 -6-------6--6--6--4------4--4--4--6--------6--6--6--4-------4--4--4--

The world is a lonely place (when) You're on your own
 
 -------------------------------------------------------------------------
 ----------------------------------------------9-11-----11p9--------9h11--
 -------------------------------------------10--------------10---10-------
 -------------------------------------------------------------------------
 -------------------------------------------------------------------------
 -------------------------------------------------------------------------

[A#] [A#] [A#] [A#] [G#] [G#] [G#] [G#] [A#] [A#] [A#] [A#] [G#] [G#] [G#] [G#] 
 
 ------6--6--6--6-------4-4--4--4--------6--6--6--6-------4--4--4--4--
 -----6---6--6--6------4--4--4--4------66---6--6--6------4---4--4--4--
 ----7----7--7--7-----5---5--5--5-----7-----7--7--7-----5----5--5--5--
 ---8-----8--8--8----6----6--6--6----8------8--8--8----6-----6--6--6--
 --8------8--8--8---6-----6--6--6---8-------8--8--8---6------6--6--6--
 -6-------6--6--6--4------4--4--4--6--------6--6--6--4-------4--4--4--

Guess I will go home sit down and moan
 
 -------------------------------------------------------------------
 -------------------------------------------11------9h11hp9----11---
 -----------------------------------------------------------10------
 -------------------------------------------------------------------
 -------------------------------------------------------------------
 -------------------------------------------------------------------

[A#] [A#] [A#] [A#] [G#] [G#] [G#] [G#] [A#] [A#] [A#] [A#] [G#] [G#] [G#] [G#] 
 
 ------6--6--6--6-------4-4--4--4--------6--6--6--6-------4--4--4--4--
 -----6---6--6--6------4--4--4--4------66---6--6--6------4---4--4--4--
 ----7----7--7--7-----5---5--5--5-----7-----7--7--7-----5----5--5--5--
 ---8-----8--8--8----6----6--6--6----8------8--8--8----6-----6--6--6--
 --8------8--8--8---6-----6--6--6---8-------8--8--8---6------6--6--6--
 -6-------6--6--6--4------4--4--4--6--------6--6--6--4-------4--4--4--

Crying and thinking is all that I do
 
 -------------------------------------8--------------------------
 -----------------------------------------11-9-----9h11p9-9--------
 ------------------------------------------------------------------
 ------------------------------------------------------------------
 ------------------------------------------------------------------
 ------------------------------------------------------------------

[A#] [A#] [A#] [A#] [G#] [G#] [G#] [G#] [A#] [A#] [A#] [A#] [G#] [G#] [G#] [G#] 
 
 ------6--6--6--6-------4-4--4--4--------6--6--6--6-------4--4--4--4--
 -----6---6--6--6------4--4--4--4------66---6--6--6------4---4--4--4--
 ----7----7--7--7-----5---5--5--5-----7-----7--7--7-----5----5--5--5--
 ---8-----8--8--8----6----6--6--6----8------8--8--8----6-----6--6--6--
 --8------8--8--8---6-----6--6--6---8-------8--8--8---6------6--6--6--
 -6-------6--6--6--4------4--4--4--6--------6--6--6--4-------4--4--4--

Memories I have remind me of you, of you, of you
 
 --------------------------------------------------8------8-----------------
 ---------------------------------------------------11------11---9h11p9-----
 -----------------------------------------------10------10--------------10--
 ---------------------------------------------------------------------------
 ---------------------------------------------------------------------------
 ---------------------------------------------------------------------------

[A#] [A#] [A#] [A#] [G#] [G#] [G#] [G#] [A#] [A#] [A#] [A#] [G#] [G#] [G#] [G#] 
 
 ------6--6--6--6-------4-4--4--4--------6--6--6--6-------4--4--4--4--
 -----6---6--6--6------4--4--4--4------66---6--6--6------4---4--4--4--
 ----7----7--7--7-----5---5--5--5-----7-----7--7--7-----5----5--5--5--
 ---8-----8--8--8----6----6--6--6----8------8--8--8----6-----6--6--6--
 --8------8--8--8---6-----6--6--6---8-------8--8--8---6------6--6--6--
 -6-------6--6--6--4------4--4--4--6--------6--6--6--4-------4--4--4--

 
 --------8h9-8---------------8h9p8-------
 ----11-------11-11------9h11------11----
 -10----------------8h10-----------------
 ----------------------------------------
 ----------------------------------------
 ----------------------------------------

[A#] [A#] [A#] [A#] [G#] [G#] [G#] [G#] [A#] [A#] [A#] [A#] [G#] [G#] [G#] [G#] 
 
 ------6--6--6--6-------4-4--4--4--------6--6--6--6-------4--4--4--4--
 -----6---6--6--6------4--4--4--4------66---6--6--6------4---4--4--4--
 ----7----7--7--7-----5---5--5--5-----7-----7--7--7-----5----5--5--5--
 ---8-----8--8--8----6----6--6--6----8------8--8--8----6-----6--6--6--
 --8------8--8--8---6-----6--6--6---8-------8--8--8---6------6--6--6--
 -6-------6--6--6--4------4--4--4--6--------6--6--6--4-------4--4--4--

 
 --------8-9-11--8-----9p8------------
 ----11--------------------11--9-11---
 -10----------------------------------
 -------------------------------------
 -------------------------------------
 -------------------------------------

[A#] [A#] [A#] [A#] [G#] [G#] [G#] [G#] [A#] [A#] [A#] [A#] [G#] [G#] [G#] [G#] 
 
 ------6--6--6--6-------4-4--4--4--------6--6--6--6-------4--4--4--4--
 -----6---6--6--6------4--4--4--4------66---6--6--6------4---4--4--4--
 ----7----7--7--7-----5---5--5--5-----7-----7--7--7-----5----5--5--5--
 ---8-----8--8--8----6----6--6--6----8------8--8--8----6-----6--6--6--
 --8------8--8--8---6-----6--6--6---8-------8--8--8---6------6--6--6--
 -6-------6--6--6--4------4--4--4--6--------6--6--6--4-------4--4--4--

 
 -8/9-8----8/9-8--8-9-----8-----
 ------11------------9--9---11--
 -------------------------------
 -------------------------------
 -------------------------------
 -------------------------------

[A#] [A#] [A#] [A#] [G#] [G#] [G#] [G#] [A#] [A#] [A#] [A#] [G#] [G#] [G#] [G#] 
 
 ------6--6--6--6-------4-4--4--4--------6--6--6--6-------4--4--4--4--
 -----6---6--6--6------4--4--4--4------66---6--6--6------4---4--4--4--
 ----7----7--7--7-----5---5--5--5-----7-----7--7--7-----5----5--5--5--
 ---8-----8--8--8----6----6--6--6----8------8--8--8----6-----6--6--6--
 --8------8--8--8---6-----6--6--6---8-------8--8--8---6------6--6--6--
 -6-------6--6--6--4------4--4--4--6--------6--6--6--4-------4--4--4--

 
 --------8-9-8-----------8----------8------------8-------------------------
 ----11--------11---9--9--11---9-11---111---9-11---11--9h11p9---------9h11-
 -10----------------------------------------------------------10--8h10-----
 --------------------------------------------------------------------------
 --------------------------------------------------------------------------
 --------------------------------------------------------------------------


Important: The song above is NOT stored on the Chordie server. The original song is hosted at www.xguitar.com. Chordie works as a search engine and provides on-the-fly formatting. Chordie does not index songs against artists'/composers' will. To remove this song please click here.

Text color:
Chord color:
Chord grids: 
Font size:    
Page size: 

A# G#
Rate #13 of 14 versions

Jango Player

Login - add to songbook

SHARE PAGE  



You need to log in to post comments