Guitar Tabs, Chords and Lyrics
Major upgrade!! After one year development the new version of Chordie is now online! Please give feedback.


Sweet Leaf  Black Sabbath

Started:
Finished: 11:54 PM 11/29/97
Updated: 17:56 2/4/01
Black Sabbath - Sweet Leaf
From Black Sabbath's "Master of Reality" Album - July 1971
Tuning Info: Tune to C#, Allegro, 144 beats/min., 4/4 count
Lyrics written here may not align with the tab due to space
constraints.
Cough!! Pan Left to right
C C F\E\D# C D#/F\(C#) C C F\E\D# C D#/F\(C#)
 
 ------------------------------------------------------------------
 ------------------------------------------------------------------
 ------------------------------------------------------------------
 ------------------------------------------------------------------
 -10-10--15\14\13--10-13/15\(11)--10-10---15\14\13--10-13/15\(11)--
 --8--8--13\12\11---8-11/13\-(9)---8--8---13\12\11---8-11/13\-(9)--

Alright now!
C C F\E\D# C D#/F\(C#) C C F\E\D# C D#/F\(C#)
 
 ------------------------------------------------------------------
 ------------------------------------------------------------------
 ------------------------------------------------------------------
 ------------------------------------------------------------------
 -10-10--15\14\13--10-13/15\(11)--10-10---15\14\13--10-13/15\(11)--
 --8--8--13\12\11---8-11/13\-(9)---8--8---13\12\11---8-11/13\-(9)--

Won't ya listen?
C C F\E\D# C D#/F\(C#)
 
 ---------------------------------
 ---------------------------------
 ---------------------------------
 ---------------------------------
 -10-10--15\14\13--10-13/15\(11)--
 --8--8--13\12\11---8-11/13\-(9)--

C C F\E\D# C D#/F\(C#) C C F\E\D# C D#/F\(C#)
 
 ------------------------------------------------------------------
 ------------------------------------------------------------------
 ------------------------------------------------------------------
 ------------------------------------------------------------------
 -10-10--15\14\13--10-13/15\(11)--10-10---15\14\13--10-13/15\(11)--
 --8--8--13\12\11---8-11/13\-(9)---8--8---13\12\11---8-11/13\-(9)--

When I first met you didn't realize
C C F\E\D# C D#/F\(C#) C C F\E\D# C D#/F\(C#)
 
 ------------------------------------------------------------------
 ------------------------------------------------------------------
 ------------------------------------------------------------------
 ------------------------------------------------------------------
 -10-10--15\14\13--10-13/15\(11)--10-10---15\14\13--10-13/15\(11)--
 --8--8--13\12\11---8-11/13\-(9)---8--8---13\12\11---8-11/13\-(9)--

I can't forget you or your suprise
C C F\E\D# C D#/F\(C#) C C F\E\D# C D#/F\(C#)
 
 ------------------------------------------------------------------
 ------------------------------------------------------------------
 ------------------------------------------------------------------
 ------------------------------------------------------------------
 -10-10--15\14\13--10-13/15\(11)--10-10---15\14\13--10-13/15\(11)--
 --8--8--13\12\11---8-11/13\-(9)---8--8---13\12\11---8-11/13\-(9)--

You introduced me to my mind
C C F\E\D# C D#/F\(C#) C C F\E\D# C D#/F\(C#)
 
 ------------------------------------------------------------------
 ------------------------------------------------------------------
 ------------------------------------------------------------------
 ------------------------------------------------------------------
 -10-10--15\14\13--10-13/15\(11)--10-10---15\14\13--10-13/15\(11)--
 --8--8--13\12\11---8-11/13\-(9)---8--8---13\12\11---8-11/13\-(9)--

And left me wanting you and your kind Oh yeah!
C A# D# G\C C A# D# G\C C A# D# G\C C A# D# G\C
 
 -----------------------------------------------------------------------
 -----------------------------------------------------------------------
 -----------------------------------------------------------------------
 -----------------------------------------------------------------------
 -10---8-13-17\10--10---8-13-17\10--10----8-13-17\10--10---8-13-17\10---
 --8---6-11-15\-8---8---6-11-15\-8---8----6-11-15\-8---8---6-11-15\-8---

(Guitar 1)
 
 --------------------------------------------------------------------------
 --------------------------------------------------------------------------
 -------8-12\(9)----------8-12\(9)---------8-12\(9)----------8-12\(9)------
 -10--8---------10-10--8---------10-10--88---------10-10---8----------10---
 --------------------------------------------------------------------------
 --------------------------------------------------------------------------

(Guitar 2)
C C F\E\D# C D#/F\(C#) C C F\E\D# C D#/F\(C#)
 
 ------------------------------------------------------------------
 ------------------------------------------------------------------
 ------------------------------------------------------------------
 ------------------------------------------------------------------
 -10-10--15\14\13--10-13/15\(11)--10-10---15\14\13--10-13/15\(11)--
 --8--8--13\12\11---8-11/13\-(9)---8--8---13\12\11---8-11/13\-(9)--

(Guitar 1)
 
 ----------------------------------------------------------
 ----------------------------------------------------------
 ----------10-9-8~----8--10-----------10--9-8~-----8--10---
 -10-10\(5)--------10--------10-10\(5)---------10----------
 ----------------------------------------------------------
 ----------------------------------------------------------

(Guitar 2) I love you!
C C F\E\D# C D#/F\(C#) C C F\E\D# C D#/F\(C#)
 
 ------------------------------------------------------------------
 ------------------------------------------------------------------
 ------------------------------------------------------------------
 ------------------------------------------------------------------
 -10-10--15\14\13--10-13/15\(11)--10-10---15\14\13--10-13/15\(11)--
 --8--8--13\12\11---8-11/13\-(9)---8--8---13\12\11---8-11/13\-(9)--

(Guitar 1)
 
 ----------------------------------------------------------
 ----------------------------------------------------------
 ----------10-9-8~----8--10-----------10--9-8~-----8--10---
 -10-10\(5)--------10--------10-10\(5)---------10----------
 ----------------------------------------------------------
 ----------------------------------------------------------

(Guitar 2) Oh you know it!
C C F\E\D# C D#/F\(C#) C C F\E\D# C D#/F\(C#)
 
 ------------------------------------------------------------------
 ------------------------------------------------------------------
 ------------------------------------------------------------------
 ------------------------------------------------------------------
 -10-10--15\14\13--10-13/15\(11)--10-10---15\14\13--10-13/15\(11)--
 --8--8--13\12\11---8-11/13\-(9)---8--8---13\12\11---8-11/13\-(9)--

(Guitar 1)
 
 ----------------------------------------------------------
 ----------------------------------------------------------
 ----------10-9-8~----8--10-----------10--9-8~-----8--10---
 -10-10\(5)--------10--------10-10\(5)---------10----------
 ----------------------------------------------------------
 ----------------------------------------------------------

(Guitar 2)
My life was empty Forever on a down
C C F\E\D# C D#/F\(C#) C C F\E\D# C D#/F\(C#)
 
 ------------------------------------------------------------------
 ------------------------------------------------------------------
 ------------------------------------------------------------------
 ------------------------------------------------------------------
 -10-10--15\14\13--10-13/15\(11)--10-10---15\14\13--10-13/15\(11)--
 --8--8--13\12\11---8-11/13\-(9)---8--8---13\12\11---8-11/13\-(9)--

(Guitar 1)
 
 ----------------------------------------------------------
 ----------------------------------------------------------
 ----------10-9-8~----8--10-----------10--9-8~-----8--10---
 -10-10\(5)--------10--------10-10\(5)---------10----------
 ----------------------------------------------------------
 ----------------------------------------------------------

(Guitar 2)
Until you touched me showed me around
C C F\E\D# C D#/F\(C#) C C F\E\D# C D#/F\(C#)
 
 ------------------------------------------------------------------
 ------------------------------------------------------------------
 ------------------------------------------------------------------
 ------------------------------------------------------------------
 -10-10--15\14\13--10-13/15\(11)--10-10---15\14\13--10-13/15\(11)--
 --8--8--13\12\11---8-11/13\-(9)---8--8---13\12\11---8-11/13\-(9)--

(Guitar 1)
 
 ----------------------------------------------------------
 ----------------------------------------------------------
 ----------10-9-8~----8--10-----------10--9-8~-----8--10---
 -10-10\(5)--------10--------10-10\(5)---------10----------
 ----------------------------------------------------------
 ----------------------------------------------------------

(Guitar 2)
My life is free now My life is clear
C C F\E\D# C D#/F\(C#) C C F\E\D# C D#/F\(C#)
 
 ------------------------------------------------------------------
 ------------------------------------------------------------------
 ------------------------------------------------------------------
 ------------------------------------------------------------------
 -10-10--15\14\13--10-13/15\(11)--10-10---15\14\13--10-13/15\(11)--
 --8--8--13\12\11---8-11/13\-(9)---8--8---13\12\11---8-11/13\-(9)--

(Guitar 1)
 
 ----------------------------------------------------------
 ----------------------------------------------------------
 ----------10-9-8~----8--10-----------10--9-8~-----8--10---
 -10-10\(5)--------10--------10-10\(5)---------10----------
 ----------------------------------------------------------
 ----------------------------------------------------------

(Guitar 2)
I love you sweet leaf, though you can't hear Oh, yeah!
C A# D# G\C C A# D# G\C C A# D# G\C C A# D# G\C
 
 -----------------------------------------------------------------------
 -----------------------------------------------------------------------
 -----------------------------------------------------------------------
 -----------------------------------------------------------------------
 -10---8-13-17\10--10---8-13-17\10--10----8-13-17\10--10---8-13-17\10---
 --8---6-11-15\-8---8---6-11-15\-8---8----6-11-15\-8---8---6-11-15\-8---

(Guitar 1)
 
 --------------------------------------------------------------------------
 --------------------------------------------------------------------------
 -------8-12\(9)----------8-12\(9)---------8-12\(9)----------8-12\(9)------
 -10--8---------10-10--8---------10-10--88---------10-10---8----------10---
 --------------------------------------------------------------------------
 --------------------------------------------------------------------------

(Guitar 2)
[C] [C] [C]  
 
 ----------------
 ----------------
 ----------------
 ----------------
 -10---10---10---
 --8----8----8---

(Guitar 1)
 
 ----------
 ----------
 ----------

-10\(5)---
 
 ----------
 ----------

(Guitar2)
[C/D] [C/D] [D] [D] [D/E] [C/D] [C/D] [D] [D] [D/E] [C/D] [C/D] [D] [D] [D/E] 
 
 ------------------------------------------------------------------------------
 ------------------------------------------------------------------------------
 ------------------------------------------------------------------------------
 ------------------------------------------------------------------------------
 -10/12-10/12-12-12-12/14--10/12-10/12-122-12-12/14--10/12-10/12-12-12-12/14---
 --8/10--8/10-10-10-10/12---8/10--8/10-100-10-10/12---8/10--8/10-10-10-10/12---

(Guitar 1)
 
 ---------------------------------------------------------------------
 ---------------------------------------------------------------------
 -13-14-14p13--13-14-14p13--13-14-14p13---13-14-14p13--13-14-14p13----
 ------------14-----------14-----------144-----------14-----------14--
 ---------------------------------------------------------------------
 ---------------------------------------------------------------------
 ---------------------------------------------------------------------
 ---------------------------------------------------------------------
 -13-14-14p13--13-14-14p13--13-14-14p13---13-14-14p13--13-14-14p13----
 ------------14-----------14-----------144-----------14-----------14--
 ---------------------------------------------------------------------
 ---------------------------------------------------------------------
 ---------------------------------------------------------------------
 ---------------------------------------------------------------------
 -13-14-14p13--13-14-14p13--13-14-14p13---13-14-14p13--13-14-14p13----
 ------------14-----------14-----------144-----------14-----------14--
 ---------------------------------------------------------------------
 ---------------------------------------------------------------------
 -------------------------------------------------------
 -------------------------------------------------------
 -13-14-14p13--13-14-14p13--13-14-14p13---13-14/16~~~---
 ------------14-----------14-----------144--------------
 -------------------------------------------------------
 -------------------------------------------------------
 -------------------------------------------------------------------
 -15^(17-17-17)-15-15p12--12------------------12-15^(17-17-17)------
 -----------------------14--14p12--12-14^^(16)----------------------
 --------------------------------14---------------------------------
 -------------------------------------------------------------------
 -------------------------------------------------------------------
 ------------------------------------------------------
 -15-15p12--12-----------------------------------------
 ---------14--14p12------------------------------------
 ------------------14-12-14p12-------------------------
 -----------------------------14-12-14p122-10----------
 --------------------------------------------12\(7)----
 -------------------------------------------------------------------
 -15^(17-17-17)-15-15p12--12------------------12-15^(17-17-17)------
 -----------------------14--14p12--12-14^^(16)----------------------
 --------------------------------14---------------------------------
 -------------------------------------------------------------------
 -------------------------------------------------------------------
 ------------------------------------------------------
 -15-15p12--12-----------------------------------------
 ---------14--14p12------------------------------------
 ------------------14-12-14p12-------------------------
 -----------------------------14-12-14p122-10----------
 --------------------------------------------12\(7)----

E C\A# E C\A# E C\A#
 
 -----------------------------------
 -----------------------------------
 -----------------------------------
 -----------------------------------
 --14--10\8---14--10\8---14--10\8---
 --12---8\6---12---8\6---12---8\6---

C C F\E\D# C D#/F\(C#) C C F\E\D# C D#/F\(C#)
 
 ------------------------------------------------------------------
 ------------------------------------------------------------------
 ------------------------------------------------------------------
 ------------------------------------------------------------------
 -10-10--15\14\13--10-13/15\(11)--10-10---15\14\13--10-13/15\(11)--
 --8--8--13\12\11---8-11/13\-(9)---8--8---13\12\11---8-11/13\-(9)--

(Guitar 1)
 
 ----------------------------------------------------------
 ----------------------------------------------------------
 ----------10-9-8~----8--10-----------10--9-8~-----8--10---
 -10-10\(5)--------10--------10-10\(5)---------10----------
 ----------------------------------------------------------
 ----------------------------------------------------------

(Guitar 2)
Come on now!
C C F\E\D# C D#/F\(C#) C C F\E\D# C D#/F\(C#)
 
 ------------------------------------------------------------------
 ------------------------------------------------------------------
 ------------------------------------------------------------------
 ------------------------------------------------------------------
 -10-10--15\14\13--10-13/15\(11)--10-10---15\14\13--10-13/15\(11)--
 --8--8--13\12\11---8-11/13\-(9)---8--8---13\12\11---8-11/13\-(9)--

(Guitar 1)
 
 ----------------------------------------------------------
 ----------------------------------------------------------
 ----------10-9-8~----8--10-----------10--9-8~-----8--10---
 -10-10\(5)--------10--------10-10\(5)---------10----------
 ----------------------------------------------------------
 ----------------------------------------------------------

(Guitar 2) Try it out!
C C F\E\D# C D#/F\(C#) C C F\E\D# C D#/F\(C#)
 
 ------------------------------------------------------------------
 ------------------------------------------------------------------
 ------------------------------------------------------------------
 ------------------------------------------------------------------
 -10-10--15\14\13--10-13/15\(11)--10-10---15\14\13--10-13/15\(11)--
 --8--8--13\12\11---8-11/13\-(9)---8--8---13\12\11---8-11/13\-(9)--

(Guitar 1)
 
 ----------------------------------------------------------
 ----------------------------------------------------------
 ----------10-9-8~----8--10-----------10--9-8~-----8--10---
 -10-10\(5)--------10--------10-10\(5)---------10----------
 ----------------------------------------------------------
 ----------------------------------------------------------

(Guitar 2)
Straight people don't know what you're about
C C F\E\D# C D#/F\(C#) C C F\E\D# C D#/F\(C#)
 
 ------------------------------------------------------------------
 ------------------------------------------------------------------
 ------------------------------------------------------------------
 ------------------------------------------------------------------
 -10-10--15\14\13--10-13/15\(11)--10-10---15\14\13--10-13/15\(11)--
 --8--8--13\12\11---8-11/13\-(9)---8--8---13\12\11---8-11/13\-(9)--

(Guitar 1)
 
 ----------------------------------------------------------
 ----------------------------------------------------------
 ----------10-9-8~----8--10-----------10--9-8~-----8--10---
 -10-10\(5)--------10--------10-10\(5)---------10----------
 ----------------------------------------------------------
 ----------------------------------------------------------

(Guitar 2)
They put you down and shut you out
C C F\E\D# C D#/F\(C#) C C F\E\D# C D#/F\(C#)
 
 ------------------------------------------------------------------
 ------------------------------------------------------------------
 ------------------------------------------------------------------
 ------------------------------------------------------------------
 -10-10--15\14\13--10-13/15\(11)--10-10---15\14\13--10-13/15\(11)--
 --8--8--13\12\11---8-11/13\-(9)---8--8---13\12\11---8-11/13\-(9)--

(Guitar 1)
 
 ----------------------------------------------------------
 ----------------------------------------------------------
 ----------10-9-8~----8--10-----------10--9-8~-----8--10---
 -10-10\(5)--------10--------10-10\(5)---------10----------
 ----------------------------------------------------------
 ----------------------------------------------------------

(Guitar 2)
You gave to me a new belief
C C F\E\D# C D#/F\(C#) C C F\E\D# C D#/F\(C#)
 
 ------------------------------------------------------------------
 ------------------------------------------------------------------
 ------------------------------------------------------------------
 ------------------------------------------------------------------
 -10-10--15\14\13--10-13/15\(11)--10-10---15\14\13--10-13/15\(11)--
 --8--8--13\12\11---8-11/13\-(9)---8--8---13\12\11---8-11/13\-(9)--

(Guitar 1)
 
 ----------------------------------------------------------
 ----------------------------------------------------------
 ----------10-9-8~----8--10-----------10--9-8~-----8--10---
 -10-10\(5)--------10--------10-10\(5)---------10----------
 ----------------------------------------------------------
 ----------------------------------------------------------

(Guitar 2)
And soon the world will love you sweet leaf Oh, yeah baby!
C A# D# G\C C A# D# G\C C A# D# G\C C A# D# G\C
 
 -----------------------------------------------------------------------
 -----------------------------------------------------------------------
 -----------------------------------------------------------------------
 -----------------------------------------------------------------------
 -10---8-13-17\10--10---8-13-17\10--10----8-13-17\10--10---8-13-17\10---
 --8---6-11-15\-8---8---6-11-15\-8---8----6-11-15\-8---8---6-11-15\-8---

(Guitar 1)
 
 --------------------------------------------------------------------------
 --------------------------------------------------------------------------
 -------8-12\(9)----------8-12\(9)---------8-12\(9)----------8-12\(9)------
 -10--8---------10-10--8---------10-10--88---------10-10---8----------10---
 --------------------------------------------------------------------------
 --------------------------------------------------------------------------

C C F\E\D# C D#/F\(C#) C C F\E\D# C D#/F\(C#)
 
 ------------------------------------------------------------------
 ------------------------------------------------------------------
 ------------------------------------------------------------------
 ------------------------------------------------------------------
 -10-10--15\14\13--10-13/15\(11)--10-10---15\14\13--10-13/15\(11)--
 --8--8--13\12\11---8-11/13\-(9)---8--8---13\12\11---8-11/13\-(9)--

(Guitar 1)
 
 ----------------------------------------------------------
 ----------------------------------------------------------
 ----------10-9-8~----8--10-----------10--9-8~-----8--10---
 -10-10\(5)--------10--------10-10\(5)---------10----------
 ----------------------------------------------------------
 ----------------------------------------------------------

(Guitar 2)
Come on Now!
C C F\E\D# C D#/F\(C#) C C F\E\D# C D#/F\(C#)
 
 ------------------------------------------------------------------
 ------------------------------------------------------------------
 ------------------------------------------------------------------
 ------------------------------------------------------------------
 -10-10--15\14\13--10-13/15\(11)--10-10---15\14\13--10-13/15\(11)--
 --8--8--13\12\11---8-11/13\-(9)---8--8---13\12\11---8-11/13\-(9)--

(Guitar 1)
 
 ----------------------------------------------------------
 ----------------------------------------------------------
 ----------10-9-8~----8--10-----------10--9-8~-----8--10---
 -10-10\(5)--------10--------10-10\(5)---------10----------
 ----------------------------------------------------------
 ----------------------------------------------------------

(Guitar 2)
Oh yeah! Crumple you paper (?)
C C F\E\D# C D#/F\(C#) C C F\E\D# C D#/F\(C#)
 
 ------------------------------------------------------------------
 ------------------------------------------------------------------
 ------------------------------------------------------------------
 ------------------------------------------------------------------
 -10-10--15\14\13--10-13/15\(11)--10-10---15\14\13--10-13/15\(11)--
 --8--8--13\12\11---8-11/13\-(9)---8--8---13\12\11---8-11/13\-(9)--

(Guitar 1)
 
 ----------------------------------------------------------
 ----------------------------------------------------------
 ----------10-9-8~----8--10-----------10--9-8~-----8--10---
 -10-10\(5)--------10--------10-10\(5)---------10----------
 ----------------------------------------------------------
 ----------------------------------------------------------

(Guitar 2)
Alright! Oh, yeah! I want you to try out the sweet leaf
C C F\E\D# C D#/F\(C#) C C F\E\D# C D#/F\(C#)
 
 ------------------------------------------------------------------
 ------------------------------------------------------------------
 ------------------------------------------------------------------
 ------------------------------------------------------------------
 -10-10--15\14\13--10-13/15\(11)--10-10---15\14\13--10-13/15\(11)--
 --8--8--13\12\11---8-11/13\-(9)---8--8---13\12\11---8-11/13\-(9)--

(Guitar 1)
 
 ----------------------------------------------------------
 ----------------------------------------------------------
 ----------10-9-8~----8--10-----------10--9-8~-----8--10---
 -10-10\(5)--------10--------10-10\(5)---------10----------
 ----------------------------------------------------------
 ----------------------------------------------------------

(Guitar 2)
C C F\E\D# C D#/F\(C#) C C F\E\D# C D#/F\(C#)
 
 ------------------------------------------------------------------
 ------------------------------------------------------------------
 ------------------------------------------------------------------
 ------------------------------------------------------------------
 -10-10--15\14\13--10-13/15\(11)--10-10---15\14\13--10-13/15\(11)--
 --8--8--13\12\11---8-11/13\-(9)---8--8---13\12\11---8-11/13\-(9)--

(Guitar 1)
 
 ----------------------------------------------------------
 ----------------------------------------------------------
 ----------10-9-8~----8--10-----------10--9-8~-----8--10---
 -10-10\(5)--------10--------10-10\(5)---------10----------
 ----------------------------------------------------------
 ----------------------------------------------------------

(Guitar 2)
Oh try me out I love you sweet leaf, oh
C C F\E\D# C D#/F\(C#) C C F\E\D# C D#/F\(C#)
 
 ------------------------------------------------------------------
 ------------------------------------------------------------------
 ------------------------------------------------------------------
 ------------------------------------------------------------------
 -10-10--15\14\13--10-13/15\(11)--10-10---15\14\13--10-13/15\(11)--
 --8--8--13\12\11---8-11/13\-(9)---8--8---13\12\11---8-11/13\-(9)--

(Guitar 1)
 
 ----------------------------------------------------------
 ----------------------------------------------------------
 ----------10-9-8~----8--10-----------10--9-8~-----8--10---
 -10-10\(5)--------10--------10-10\(5)---------10----------
 ----------------------------------------------------------
 ----------------------------------------------------------

(Guitar 2)

Important: The song above is NOT stored on the Chordie server. The original song is hosted at www.xguitar.com. Chordie works as a search engine and provides on-the-fly formatting. Chordie does not index songs against artists'/composers' will. To remove this song please click here.

Text color:
Chord color:
Chord grids: 
Font size:    
Page size: 

C C/D D D/E
Rate #1 of 3 versions

Jango Player

Login - add to songbook

SHARE PAGE  




You need to log in to post comments