Guitar Tabs, Chords and Lyrics
Major upgrade!! After one year development the new version of Chordie is now online! Please give feedback.


The Mob Rules  Black Sabbath

Started:
Finished: 6:48 PM 7/15/98
Black Sabbath - The Mob Rules
From Black Sabbath's "Live Evil" Album 1984
Tuning Info: Allegro, 144 beats/min., 4/4 Count
Note: Lyrics written here may not be accurate or align to the
tab due to space constraints.
[f] 
[A] [A] [A] [A] [A] [A] [D] 
 
 ---------------------------------------------------------------------
 ---------------------------------------------------------------------
 -2------2---------2------2---------2------2---------7----------------
 -2------2---------2------2---------2------2---------7----------------
 -0------0-3-33p0--0------0-3-33p0--0------0-3-33p0--5----------------
 ---3^(4)--------3---3^(4)--------3---3^(4)--------3----3~-0-3^(4)p0--

Oh! Come on!
[A] [A] [A] [A] [A] [A] [D] 
 
 ---------------------------------------------------------------------
 ---------------------------------------------------------------------
 -2------2---------2------2---------2------2---------7----------------
 -2------2---------2------2---------2------2---------7----------------
 -0------0-3-33p0--0------0-3-33p0--0------0-3-33p0--5----------------
 ---3^(4)--------3---3^(4)--------3---3^(4)--------3----3~-0-3^(4)p0--

Yeah!
[A] [A] [A] [A] [A] [A] [D] 
 
 ---------------------------------------------------------------------
 ---------------------------------------------------------------------
 -2------2---------2------2---------2------2---------7----------------
 -2------2---------2------2---------2------2---------7----------------
 -0------0-3-33p0--0------0-3-33p0--0------0-3-33p0--5----------------
 ---3^(4)--------3---3^(4)--------3---3^(4)--------3----3~-0-3^(4)p0--

Close the city and tell the people that something's coming to call
[A] [A] [A] [A] [A] [A] [D] 
 
 ---------------------------------------------------------
 ---------------------------------------------------------
 -2------2---------2------2---------2------2---------7----
 -2------2---------2------2---------2------2---------7----
 -0------0-3-33p0--0------0-3-33p0--0------0-3-33p0--5----
 ---3^(4)--------3---3^(4)--------3---3^(4)--------3------

Death and darkness are rushing forward to take a bite from the wall, oh
CHOURSE
[E] [D]  
 
 -----------------------------------------------
 -----------------------------------------------
 -9---7[~\6`7]-[~\6`7]-[~\6`7]-[~\6`7]-[~\6`7]--
 -9---7[~\6`7]-[~\6`7]-[~\6`7]-[~\6`7]-[~\6`7]--
 -7---5[~\4`5]-[~\4`5]-[~\4`5]-[~\4`5]-[~\4`5]--
 -----------------------------------------------

[u] [u]You've nothing to say
[E] [D] [E] [D] [F] 
 
 ---------------------------------------------------------
 ---------------------------------------------------------
 -9---7[~\6`7]-[~\6`7]-[~\6`7]-[~\6`7]-[~\6`7]--9--7--10--
 -9---7[~\6`7]-[~\6`7]-[~\6`7]-[~\6`7]-[~\6`7]--9--7--10--
 -7---5[~\4`5]-[~\4`5]-[~\4`5]-[~\4`5]-[~\4`5]--7--5---8--
 ---------------------------------------------------------

[u] [u]Just to break you away [u] [u] [u] If you
 
 ----------------------
 ----------------------
 ----------------------
 ----------------------
 ----------------------
 --------3[~\0/3]------

listen fools,
[A] [A] [A] [A] [A] [A] [D] 
 
 ---------------------------------------------------------------------
 ---------------------------------------------------------------------
 -2------2---------2------2---------2------2---------7----------------
 -2------2---------2------2---------2------2---------7----------------
 -0------0-3-33p0--0------0-3-33p0--0------0-3-33p0--5----------------
 ---3^(4)--------3---3^(4)--------3---3^(4)--------3----3~-0-3^(4)p0--

The Mob Rules!
[A] [A] [A] [A] [A] [A] [D] 
 
 ---------------------------------------------------------------------
 ---------------------------------------------------------------------
 -2------2---------2------2---------2------2---------7----------------
 -2------2---------2------2---------2------2---------7----------------
 -0------0-3-33p0--0------0-3-33p0--0------0-3-33p0--5----------------
 ---3^(4)--------3---3^(4)--------3---3^(4)--------3----3~-0-3^(4)p0--

The Mob Rules!
[A] [A] [A] [A] [A] [A] [D] 
 
 ---------------------------------------------------------------------
 ---------------------------------------------------------------------
 -2------2---------2------2---------2------2---------7----------------
 -2------2---------2------2---------2------2---------7----------------
 -0------0-3-33p0--0------0-3-33p0--0------0-3-33p0--5----------------
 ---3^(4)--------3---3^(4)--------3---3^(4)--------3----3~-0-3^(4)p0--

Kill the spirit and you'll be blind, but the end, it's all but the same
[A] [A] [A] [A] [A] [A] [D] 
 
 --------------------------------------------------------
 --------------------------------------------------------
 -2------2---------2------2---------2------2---------7---
 -2------2---------2------2---------2------2---------7---
 -0------0-3-33p0--0------0-3-33p0--0------0-3-33p0--5---
 ---3^(4)--------3---3^(4)--------3---3^(4)--------3-----

Play with fire, you'll burn your fingers, and look! A hole in the fable.
CHOURSE
[E] [D]  
 
 -----------------------------------------------
 -----------------------------------------------
 -9---7[~\6`7]-[~\6`7]-[~\6`7]-[~\6`7]-[~\6`7]--
 -9---7[~\6`7]-[~\6`7]-[~\6`7]-[~\6`7]-[~\6`7]--
 -7---5[~\4`5]-[~\4`5]-[~\4`5]-[~\4`5]-[~\4`5]--
 -----------------------------------------------

[u] [u]It's over, it's done!
[E] [D] [E] [D] [F] 
 
 ---------------------------------------------------------
 ---------------------------------------------------------
 -9---7[~\6`7]-[~\6`7]-[~\6`7]-[~\6`7]-[~\6`7]--9--7--10--
 -9---7[~\6`7]-[~\6`7]-[~\6`7]-[~\6`7]-[~\6`7]--9--7--10--
 -7---5[~\4`5]-[~\4`5]-[~\4`5]-[~\4`5]-[~\4`5]--7--5---8--
 ---------------------------------------------------------

[u] [u]The end of the earth [u] [u] [u] If you
 
 ----------------------
 ----------------------
 ----------------------
 ----------------------
 ----------------------
 --------0[~/4]--------

listen fools, the Mob
LEAD
 
 --------10-10p8--10-10p8-----------------------------------------------------
 -14~~~---------10-------10-8-8-10p8-10p8-------------------------------------
 -----------------------------------9----9-7-7-9p7\5-5-7p5-5------------------
 ---------------------------------------------------------7-7p5-5------------5
 --------------------------------------------------------------7-7-5-3~-3h5/7-
 -----------------------------------------------------------------------------

Rules!
 
 3h5/7--------------------------------------------------------------------5-3-
 -----3h5/7-------------------------------------7-5------------5h7p5\3h5p3----
 ----------5-7-----------------------7-7-5-5h7p5-5--7-5-7-5h7p5---------------
 -------------5-7-------------7-5h7p5-5------------5--------------------------
 --------------------8--5hp8p5-5----------------------------------------------
 -----------------8p5-5-------------------------------------------------------
 -h5-----------------------------------------------
 ---3-5---------------------------------------5~---
 ------------------------------------3h5p3h5-3-----
 ------(3)/7--------------(3h5 tr~~~)--------------
 -----------5-(3h5 tr~~~)--------------------------
 --------------------------------------------------

Yeah!
 
 ------5-8p5-----5-8p5-----5-8p5-----5-8p5-----5-8p5------5-8-10-10^(12)-10--
 -7^(9)-----7^(9)-----7^(9)-----7^(9)-----7^(9)------8^(9)-------------------
 ----------------------------------------------------------------------------
 ----------------------------------------------------------------------------
 ----------------------------------------------------------------------------
 ----------------------------------------------------------------------------
 -8h10-8h10p8h10-------------------------------------------------------------
 ---------------8h10p8h-8------------------5h7p5---5-(5h7 tr~~)--------------
 ----------------------9-9p7h9p7\5-7p5-5-7------7-5------------(5h7 tr~~)----
 ---------------------------------7------------------------------------------
 ----------------------------------------------------------------------------
 ----------------------------------------------------------------------------

Ohhh Nooo
 
 ------------------------------
 ------------------------------
 ------------------------------
 -(5h7 tr~~~)------------------
 ------------5h8p5-8-7-5~------
 ------------------------------
 ----------------------------------------------------------------------------
 -10~-7--10~-7--10~-7---------8^(10)-8-5-8p5---------------------------------
 -10~-7--10~-7--10~-7-7-5-5h7---------------7p5-----------------------5-7/9--
 ----------------------------------------------5-5------5-7--------5h7-------
 -------------------------------------------------7~-8-8----8-5-7h8----------
 ----------------------------------------------------------------------------
 -10-8-10p8-----------------------------
 ----------10p8-8-----------------------
 --------------9-9p7\5-------5----------
 ---------------------7p5-5h7-7p5-5-----
 --------------------------------7-7p5--
 ---------------------------------------

CHOURSE
[E] [D]  
 
 -----------------------------------------------
 -----------------------------------------------
 -9---7[~\6`7]-[~\6`7]-[~\6`7]-[~\6`7]-[~\6`7]--
 -9---7[~\6`7]-[~\6`7]-[~\6`7]-[~\6`7]-[~\6`7]--
 -7---5[~\4`5]-[~\4`5]-[~\4`5]-[~\4`5]-[~\4`5]--
 -----------------------------------------------

[u] [u]You've nothing to say
[E] [D] [E] [D] [F] 
 
 ---------------------------------------------------------
 ---------------------------------------------------------
 -9---7[~\6`7]-[~\6`7]-[~\6`7]-[~\6`7]-[~\6`7]--9--7--10--
 -9---7[~\6`7]-[~\6`7]-[~\6`7]-[~\6`7]-[~\6`7]--9--7--10--
 -7---5[~\4`5]-[~\4`5]-[~\4`5]-[~\4`5]-[~\4`5]--7--5---8--
 ---------------------------------------------------------

[u] [u]That will break you away [u] [u] [u] If you
 
 ----------------------
 ----------------------
 ----------------------
 ----------------------
 ----------------------
 --------3[~\0/3]------

listen fools!
[A] [A] [A] [A] [A] [A] [D] 
 
 ---------------------------------------------------------------------
 ---------------------------------------------------------------------
 -2------2---------2------2---------2------2---------7----------------
 -2------2---------2------2---------2------2---------7----------------
 -0------0-3-33p0--0------0-3-33p0--0------0-3-33p0--5----------------
 ---3^(4)--------3---3^(4)--------3---3^(4)--------3----3~-0-3^(4)p0--

Break the circle, and, stop the movement! The wheel is thrown to the ground.
[A] [A] [A] [A] [A] [A] [D] 
 
 --------------------------------------------------------------------
 --------------------------------------------------------------------
 -2------2---------2------2---------2------2---------7---------------
 -2------2---------2------2---------2------2---------7---------------
 -0------0-3-33p0--0------0-3-33p0--0------0-3-33p0--5---------------
 ---3^(4)--------3---3^(4)--------3---3^(4)--------3---3~-0-3^(4)p0--

Just remember, it might stop rolling, and, take you right back around.
[A] [A]  
 
 --------------(5)/8^(9)~-8^(10)-8-8-5----10^(12)~-10^(12`10)-8--------------
 -------------------------------------8~-------------------------------------
 -2------2-------------------------------------------------------------------
 -2------2-------------------------------------------------------------------
 -0------0-------------------------------------------------------------------
 ---3^(4)--------------------------------------------------------------------

You're all fools!
 
 --------19-22p19-------19-22p19--19h22p19--19h22p19--19h22p19-19h22p19h22p19
 -20^(22)--------20^(22)--------20--------20--------20-----------------------
 ----------------------------------------------------------------------------
 ----------------------------------------------------------------------------
 ----------------------------------------------------------------------------
 ----------------------------------------------------------------------------

The Mob Rules!
 
 ------19h22p19h22p19h22p19--------19h22p19-----------------------------------
 -20-20--------------------20^(22)---------20-20p17---20p17--20p17------------
 --------------------------------------------------19------19-----19-17-19p17h
 ----------------------------------------------------------------------------
 ----------------------------------------------------------------------------
 ----------------------------------------------------------------------------
 ----------------------------------------------------------------5-----------
 -------------------------------------------------------------5h7-8-5--5-----
 -19p17h19p17--------------------------------------------------------7--7-5--
 ------------17h19p17h19p17-17-20p-------------------------------------------
 ---------------------------------17-19p17h19p17-----------------------------
 -----------------------------------------------19-17--(12\)3~---------------
 ----------------------------------------------------------------------
 ---------------(7^(10))-10-8-8-10p8-----------------------------------
 --5-------------7^(10)------9------9-9p7h97\5h7p5---------------------
 -7-7-5---5---------------------------------------7-5h7p5h7p5----------
 ------7-5-7-5-3---------------------------------------------7-5h7p5\3-
 ----------------------------------------------------------------------

[A] [A] [A] [A] [A] [A] [D] 
 
 --------------------------------------------------------------------
 --------------------------------------------------------------------
 -2------2---------2------2---------2------2---------7---------------
 -2------2---------2------2---------2------2---------7---------------
 -0------0-3-33p0--0------0-3-33p0--0------0-3-33p0--5---------------
 ---3^(4)--------3---3^(4)--------3---3^(4)--------3---3~-0-3^(4)p0--

[A] [A] [A] [A] [A] [A] 
 
 ----------------------------------------------------
 ----------------------------------------------------
 -2------2---------2------2---------2------2---------
 -2------2---------2------2---------2------2---------
 -0------0-3-33p0--0------0-3-33p0--0------0-3-33p0--
 ---3^(4)--------3---3^(4)--------3---3^(4)--------3-

[D] [A] [A] 
 
 ------------------------------------------
 ------------------------------------------
 -7[~\6`7]-[~\6`7]-[~\6`7]------------2--2-
 -7[~\6`7]-[~\6`7]-[~\6`7]------------2--2-
 -5[~\4`5]-[~\4`5]-[~\4`5]------------0--0-
 ----------------------------3[~\0/3]-------

The Mob Rules!! Thank you! Good Job!
I transcribed this on the 15th of July, the day I was fired from my job.
at Signs Now. Apporiate, huh??

Important: The song above is NOT stored on the Chordie server. The original song is hosted at www.xguitar.com. Chordie works as a search engine and provides on-the-fly formatting. Chordie does not index songs against artists'/composers' will. To remove this song please click here.

Text color:
Chord color:
Chord grids: 
Font size:    
Page size: 

A D E F
Rate #1 of 2 versions

Jango Player

Login - add to songbook

SHARE PAGE  



You need to log in to post comments