Guitar Tabs, Chords and Lyrics
Major upgrade!! After one year development the new version of Chordie is now online! Please give feedback.


Junior's Eyes  Black Sabbath

Started:
Finished: 10:58 AM 12/13/98
Black Sabbath - Junior's Eyes
From Black Sabbath's "Never Say Die" Album October, 1978
Allegro, 126 beats/min. Standard (E) Tuning, 440Hz
NOTE: Lyrics may not match written music or may be incorrect.
Guitars 2 and 3 may not align with Guitar 1 due space constraints.
INTRO
 
 --------------------------------------------------------------------------
 --------------------------------------------------------------------------
 --------------------------------------------------------------------------
 -----------5~------------------7-7-5~------5-7p5-------------5~------5----
 -7\(3)--5h7--------5-7\(3)--5h7------(4))/7-----7--7\(3)--5h7---7-7-7-7---
 --------------5-5-7-------------------------------------------------------

(Bass..Adopted for Guitar 2)
(p>>f) Gm7
 
 ------------------------------------------------------------------------------
 ------------------------------------------------------------------------------
 -------------------------------------------------------------------12---------
 -------------------------------------------------------------------12---------
 ------------------------------------------------------------------------------
 ------------------------------------------------------------------------------

 
 -------------------------------------------------------------------------------
 -------------------------------------------------------------------------------
 -------------------------------------------------------------------------------
 -----------7-7-5~--5/7-5---------------55~-------------------7-7-5~------------
 -7\(3)--5h7-------------5h7p5-7\(3)-5h7--------5-7-7\(3)-5h7-------7-7-5--7-7-5
 ------------------------------------------5-5-7--------------------------------

(Guitar 2/Bass)
[Gm7] [Gm7]  
 
 ------------------------------------------------------------------------------
 ------------------------------------------------------------------------------
 -12-------------------12\(7)---12--------------------12\(7)-------------------
 -12-----10h12p10\(7)--12\(7)---12-----100h12p10\(7)--12\(7)-------------------
 ------------------------------------------------------------------------------
 ------------------------------------------------------------------------------

 
 ---------------------------------------------------------------------------
 ---------------------------------------------------------------------------
 ---------------------------------------------------------------------------
 -----------5~------------------7-7-5~------5-7p5-------------5~------5--5--
 -7\(3)--5h7--------5-7\(3)--5h7------(4))/7-----7--7\(3)--5h7---7-7-7-7--7-
 --------------5-5-7--------------------------------------------------------

(Guitar 2/Bass)
Gm7 Gm7\(Am7)
 
 ---------------------------------------
 ---------------------------------------
 -12-------------------12\(7)-----------
 -12-----10h12p10\(7)--12\(7)-----------
 ---------------------------------------
 ---------------------------------------

(Guitar 1)
 
 --------------------------------------------------
 --------------------------------------------------
 --------------------------------------------------
 -----------5~------------------7-7-5~------5-5----
 -7\(3)--5h7--------5-7\(3)--5h7------7-77-7-7--7--
 --------------5-5-7------------------------------- 

(Guitar 2/Bass)
Junior's eyes looked to the skies in tears
Gm7 Gm7\(Am7)
 
 ---------------------------------------
 ---------------------------------------
 -12-------------------12\(7)-----------
 -12-----10h12p10\(7)--12\(7)-----------
 ---------------------------------------
 ---------------------------------------

(Guitar 1)
 
 ---------------------------------------------------
 ---------------------------------------------------
 ---------------------------------------------------
 -----------7-7-5~--5/7-5---------------55~---------
 -7\(3)--5h7-------------5h7p5-7\(3)-5h7--------5-7-
 ------------------------------------------5-5-7----

(Guitar 2/Bass)
He prayed that his maker, the giver and taker would hear
Gm7 Gm7\(Am7)
 
 ---------------------------------------
 ---------------------------------------
 -12-------------------12\(7)-----------
 -12-----10h12p10\(7)--12\(7)-----------
 ---------------------------------------
 ---------------------------------------

(Guitar 1)
 
 ---------------------------------------------------
 ---------------------------------------------------
 ---------------------------------------------------
 -----------7-7-5~--5/7-5---------------55~---------
 -7\(3)--5h7-------------5h7p5-7\(3)-5h7--------5-7-
 ------------------------------------------5-5-7----

(Guitar 2/Bass)
Junior sighed as his hands reached out to the sky
Gm7 Gm7\(Am7) Em7
 
 ------------------------------------------
 ------------------------------------------
 -12-------------------12\(7)---14~~-------
 -12-----10h12p10\(7)--12\(7)---14~~-------
 ------------------------------------------
 ------------------------------------------

(Guitar 1)
 
 ------------------------------------------------
 ------------------------------------------------
 ------------------------------------------------
 -----------7-7-5~--5/7-5------------7-7--7-7-7--
 -7\(3)--5h7-------------5h7p5-7\(3)-------------
 ------------------------------------------------

(Guitar 2/Bass)
Junior cried the day that his best friend died, yeah!
CHOURSE
[E5] [E5] [E5] [D5] [C5] [C5] [C5] [C5]  
 
 ------------------------------------------------------
 ------------------------------------------------------
 ---9--xx-9-9--9--7--5-5-xx-5-5------------------------
 ---9--xx-9-9--9--7--5-5-xx-5-5------------------------
 ---7--xx-7-7--7--5--3-3-xx-3-3--2p0-2~-22/3-2p0-------
 -0----------------------------------------------------

You're coming home again tomorrow.
[E5] [E5] [E5] [D5] [C5] [C5] [C5] [C5]  
 
 ------------------------------------------------------
 ------------------------------------------------------
 ---9--xx-9-9--9--7--5-5-xx-5-5------------------------
 ---9--xx-9-9--9--7--5-5-xx-5-5------------------------
 ---7--xx-7-7--7--5--3-3-xx-3-3--2p0-2~-22/3-2p0-------
 -0----------------------------------------------------

I'm sorry it won't be for long
[E5] [E5] [E5] [D5] [C5] [C5] [C5] [C5]  
 
 ------------------------------------------------------
 ------------------------------------------------------
 ---9--xx-9-9--9--7--5-5-xx-5-5------------------------
 ---9--xx-9-9--9--7--5-5-xx-5-5------------------------
 ---7--xx-7-7--7--5--3-3-xx-3-3--2p0-2~-22/3-2p0-------
 -0----------------------------------------------------

With all the pain I've watched you live with in
[E5] [E5] [E5] [D5] [C5] [B5] [D5]  
 
 ------------------------------------------------------
 ------------------------------------------------------
 ---9--xx-9-9--9--7--5-5-5--4--7-----------------------
 ---9--xx-9-9--9--7--5-5-5--4--7-----------------------
 ---7--xx-7-7--7--5--3-3-3--2--5-----------------------
 -0----------------------------------------------------

I'll try my hardest not to cry when it is time to say good bye.
[Gm7] [Gm7]  
 
 ------------------------------------------------------------------------------
 ------------------------------------------------------------------------------
 -12-------------------12\(7)---12--------------------12\(7)-------------------
 -12-----10h12p10\(7)--12\(7)---12-----100h12p10\(7)--12\(7)-------------------
 ------------------------------------------------------------------------------
 ------------------------------------------------------------------------------

(Guitar 1)
 
 ---------------------------------------------------------------------------
 ---------------------------------------------------------------------------
 ---------------------------------------------------------------------------
 -----------5~------------------7-7-5~------5-7p5-------------5~------5--5--
 -7\(3)--5h7--------5-7\(3)--5h7------(4))/7-----7--7\(3)--5h7---7-7-7-7--7-
 --------------5-5-7--------------------------------------------------------

(Guitar 2/Bass)
Gm7 Gm7\(Am7)
 
 ---------------------------------------
 ---------------------------------------
 -12-------------------12\(7)-----------
 -12-----10h12p10\(7)--12\(7)-----------
 ---------------------------------------
 ---------------------------------------

(Guitar 1)
 
 ---------------------------------------------------
 ---------------------------------------------------
 ---------------------------------------------------
 -----------7-7-5~--5/7-5---------------55~---------
 -7\(3)--5h7-------------5h7p5-7\(3)-5h7--------5-7-
 ------------------------------------------5-5-7----

(Guitar 2/Bass)
Junior's eyes couldn't disguise the pain
Gm7 Gm7\(Am7)
 
 ---------------------------------------
 ---------------------------------------
 -12-------------------12\(7)-----------
 -12-----10h12p10\(7)--12\(7)-----------
 ---------------------------------------
 ---------------------------------------

(Guitar 1)
 
 ---------------------------------------------------
 ---------------------------------------------------
 ---------------------------------------------------
 -----------7-7-5~--5/7-5---------------55~---------
 -7\(3)--5h7-------------5h7p5-7\(3)-5h7--------5-7-
 ------------------------------------------5-5-7----

(Guitar 2/Bass)
His father was leaving, and Junior was grieving again
Gm7 Gm7\(Am7)
 
 ---------------------------------------
 ---------------------------------------
 -12-------------------12\(7)-----------
 -12-----10h12p10\(7)--12\(7)-----------
 ---------------------------------------
 ---------------------------------------

(Guitar 1)
 
 ---------------------------------------------------
 ---------------------------------------------------
 ---------------------------------------------------
 -----------7-7-5~--5/7-5---------------55~---------
 -7\(3)--5h7-------------5h7p5-7\(3)-5h7--------5-7-
 ------------------------------------------5-5-7----

(Guitar 2/Bass)
Innocent eyes was the man who gave everything
Gm7 Gm7\(Am7) Em7
 
 ------------------------------------------
 ------------------------------------------
 -12-------------------12\(7)---14~~-------
 -12-----10h12p10\(7)--12\(7)---14~~-------
 ------------------------------------------
 ------------------------------------------

(Guitar 1)
 
 ------------------------------------------------
 ------------------------------------------------
 ------------------------------------------------
 -----------7-7-5~--5/7-5------------7-7--7-7-7--
 -7\(3)--5h7-------------5h7p5-7\(3)-------------
 ------------------------------------------------

(Guitar 2/Bass)
Junior's sorrow, he knew what tomorrow would bring, yeah!
CHOURSE
[E5] [E5] [E5] [D5] [C5] [C5] [C5] [C5]  
 
 ------------------------------------------------------
 ------------------------------------------------------
 ---9--xx-9-9--9--7--5-5-xx-5-5------------------------
 ---9--xx-9-9--9--7--5-5-xx-5-5------------------------
 ---7--xx-7-7--7--5--3-3-xx-3-3--2p0-2~-22/3-2p0-------
 -0----------------------------------------------------

(Guitar 1)
You're coming home again tomorrow.
 
 -------------------------------------------------------
 -------------------------------------------------------
 -----------------------------(5/)-9~~~-----------------
 -----------------------------------------7/9\7~--------
 ------------------------------------------------5-7~---
 -------------------------------------------------------

(Guitar 2)
[E5] [E5] [E5] [D5] [C5] [C5] [C5] [C5]  
 
 ------------------------------------------------------
 ------------------------------------------------------
 ---9--xx-9-9--9--7--5-5-xx-5-5------------------------
 ---9--xx-9-9--9--7--5-5-xx-5-5------------------------
 ---7--xx-7-7--7--5--3-3-xx-3-3--2p0-2~-22/3-2p0-------
 -0----------------------------------------------------

(Guitar 1)
I'm sorry it won't be for long
 
 ----------------------------------------------------------
 ----------------------------------------------------------
 ----------------------------9~~~--------------------------
 --------------------------------9--7--5---7p5-------------
 ----------------------------------------------7-5-5h7~~---
 ----------------------------------------------------------

(Guitar 2)
[E5] [E5] [E5] [D5] [C5] [C5] [C5] [C5]  
 
 ------------------------------------------------------
 ------------------------------------------------------
 ---9--xx-9-9--9--7--5-5-xx-5-5------------------------
 ---9--xx-9-9--9--7--5-5-xx-5-5------------------------
 ---7--xx-7-7--7--5--3-3-xx-3-3--2p0-2~-22/3-2p0-------
 -0----------------------------------------------------

(Guitar 1)
With all the pain I've watched you live with in
 
 -------------------------------------------------------------------
 -------------------------------------------------------7-8---------
 ----------------------------------------------------7-9---9~~~~----
 ----------------------------------------------5-7-9----------------
 -------------------------------------------5/7---------------------
 -------------------------------------------------------------------

(Guitar 2)
[E5] [E5] [E5] [D5] [C5] [B5] [D5]  
 
 ------------------------------------------------------
 ------------------------------------------------------
 ---9--xx-9-9--9--7--5-5-5--4--7-----------------------
 ---9--xx-9-9--9--7--5-5-5--4--7-----------------------
 ---7--xx-7-7--7--5--3-3-3--2--5-----------------------
 -0----------------------------------------------------

(Guitar 1)
I'll try my hardest not to cry when it is time to say good bye.
 
 --------------------------------------------------17/20-------------------
 ------------------------------------------15-17-19------17~/20~--17~~-----
 -----------------------------------15/177---------------------------------
 --------------------------------------------------------------------------
 --------------------------------------------------------------------------
 --------------------------------------------------------------------------

(Guitar 2)
[E5] [E5] [E5] [D5] [D5] [E5] [E5] [D5] [C5] [B5] 
 
 ----------------------------------------------------------
 ----------------------------------------------------------
 ----9--xx-9-9--9--7--7--------------9--xxx-9-7-5-4--------
 ----9--xx-9-9--9--7--7--------------9--xxx-9-7-5-4--------
 ----7--xx-7-7--7--5--5--5\3--5/7----7--xxx-7-5-3-2--0-2/3-
 -0-0----------------------------0-0-----------------------

[E5] [E5] [E5] [D5] [D5] [E5] [E5] [D5] [C5] [B5] 
 
 ----------------------------------------------------------
 ----------------------------------------------------------
 ----9--xx-9-9--9--7--7--------------9--xxx-9-7-5-4--------
 ----9--xx-9-9--9--7--7--------------9--xxx-9-7-5-4--------
 ----7--xx-7-7--7--5--5--5\3--5/7----7--xxx-7-5-3-2--------
 -0-0----------------------------0-0-----------------------
 ------------------------------------------------------------------------------
 ------------------------------------------------------------------------------
 ------------------------------------------------------------------------------
 ------------------------------------------------------------------------------
 -14^(16)---14^(16)---14^(16`14~)-14h16------------------------15-17~~~~~\(12)-
 --------14--------14------------------144-16-16^(18-18~-18`16)----------------

(Guitar 1)
 
 ------------------------------------------------------------------------------
 ------------------------------------------------------------------------------
 --9--9--9--9-xx-8-8-8-8--9--9--9--9--11----9-xx-11--9---9-xx-11--9------------
 -10-10-10-10-xx-9-9-9-9-10-10-10-10--12---10-xx-12--9--10-xx-12--9------------
 -10-10-10-10-xx-9-9-9-9-10-10-10-10--12---10-xx-12--7--10-xx-12--7------------
 --8--8--8--8-xx-7-7-7-7--8--8--8--8--10----8-xx-10------8-xx-10---------------

(Guitar 2 & Guitar 3 Acoustic)
 
 ------------------------------------------------------------------------------------
 ----------------------12-15p12--15~~~----------------15-----------------------------
 ---------------14^(16)--------14-----14pp12---14^(16)--14^(16`14)p12--14^(16`14~)\9-
 --------------------------------------------14----------------------14--------------
 -5-/-7~~~~(\3)----------------------------------------------------------------------
 ------------------------------------------------------------------------------------

(Guitar 1)
 
 ---------------------------------------------------------
 ---------------------------------------------------------
 --9-xx-11--9---9-xx-11--9--9-xx-11--9----9-xx-11--9------
 -10-xx-12--9--10-xx-12--9-10-xx-12--9--110-xx-12--9------
 -10-xx-12--7--10-xx-12--7-10-xx-12--7--110-xx-12--7------
 --8-xx-10------8-xx-10-----8-xx-10-------8-xx-10---------

(Guitar 2 & Guitar 3 Acoustic)
 
 ------------------------------------------------------------------------------
 -------------------------7^(9)-7^(9)-5-55-------7^(9)-7^(9)-------------------
 -----------------------------------------7~(\3)-------------7-7~~-------------
 ---------5-(7/)-9-7~~(\5)-----------------------------------------------------
 -(5/)-7~----------------------------------------------------------------------
 ------------------------------------------------------------------------------

(Guitar 1)
 
 ---------------------------------------------------------
 ---------------------------------------------------------
 --9-xx-11--9---9-xx-11--9--9-xx-11--9----9-xx-11--9------
 -10-xx-12--9--10-xx-12--9-10-xx-12--9--110-xx-12--9------
 -10-xx-12--7--10-xx-12--7-10-xx-12--7--110-xx-12--7------
 --8-xx-10------8-xx-10-----8-xx-10-------8-xx-10---------

(Guitar 2 & Guitar 3 Acoustic)
 
 --------------------------------------------------------------------------------
 --------------------------------------------------------------------------------
 -4--------------------4-4~~~(\2)-4-------------------9-9~~(\5)------------------
 ---7-5-5----------5-5--------------7-5-55---------5-9----------------5-5-7-9\7~-
 ---------(5/)-7-7-------------------------(5/)-7-7-------------(5/)-7-----------
 --------------------------------------------------------------------------------

(Guitar 1)
 
 ---------------------------------------------------------
 ---------------------------------------------------------
 --9-xx-11--9---9-xx-11--9--9-xx-11--9----9-xx-11--9------
 -10-xx-12--9--10-xx-12--9-10-xx-12--9--110-xx-12--9------
 -10-xx-12--7--10-xx-12--7-10-xx-12--7--110-xx-12--7------
 --8-xx-10------8-xx-10-----8-xx-10-------8-xx-10---------

(Guitar 2 & Guitar 3 Acoustic)
Gm7 Gm7\(Am7)
 
 ---------------------------------------
 ---------------------------------------
 -12-------------------12\(7)-----------
 -12-----10h12p10\(7)--12\(7)-----------
 ---------------------------------------
 ---------------------------------------

(Guitar 1)
 
 ---------------------------------------------------
 ---------------------------------------------------
 ---------------------------------------------------
 -----------7-7-5~--5/7-5---------------55~---------
 -7\(3)--5h7-------------5h7p5-7\(3)-5h7--------5-7-
 ------------------------------------------5-5-7----

(Guitar 2/Bass)
 
 -----------------------------------------
 -----------------------------------------
 -----------------------------------------
 --------------------5\4------------------
 -------------------------7--5--7~--------
 -----------------------------------------

Gm7 Gm7\(Am7)
 
 ---------------------------------------
 ---------------------------------------
 -12-------------------12\(7)-----------
 -12-----10h12p10\(7)--12\(7)-----------
 ---------------------------------------
 ---------------------------------------

(Guitar 1)
 
 ---------------------------------------------------
 ---------------------------------------------------
 ---------------------------------------------------
 -----------7-7-5~--5/7-5---------------55~---------
 -7\(3)--5h7-------------5h7p5-7\(3)-5h7--------5-7-
 ------------------------------------------5-5-7----

(Guitar 2/Bass)
 
 ---------------------------------------------------
 --15\12--------------------------------------------
 ---------14\12-------------------------------------
 --------------12\9---------------------------------
 -------------------5-/-7~~(\3)---------------------
 ---------------------------------------------------

(Guitar 3)
Gm7 Gm7\(Am7)
 
 ---------------------------------------
 ---------------------------------------
 -12-------------------12\(7)-----------
 -12-----10h12p10\(7)--12\(7)-----------
 ---------------------------------------
 ---------------------------------------

(Guitar 1)
 
 ---------------------------------------------------
 ---------------------------------------------------
 ---------------------------------------------------
 -----------7-7-5~--5/7-5---------------55~---------
 -7\(3)--5h7-------------5h7p5-7\(3)-5h7--------5-7-
 ------------------------------------------5-5-7----

(Guitar 2/Bass)
 
 ---------------------------------------------------
 ---------------------------------------------------
 ----------------9~~~~\(5)--------------------------
 ---------------------------------------------------
 ---------------------------------------------------
 ---------------------------------------------------

Gm7 Gm7\(Am7)
 
 ---------------------------------------
 ---------------------------------------
 -12-------------------12\(7)-----------
 -12-----10h12p10\(7)--12\(7)-----------
 ---------------------------------------
 ---------------------------------------

(Guitar 1)
 
 ---------------------------------------------------
 ---------------------------------------------------
 ---------------------------------------------------
 -----------7-7-5~--5/7-5---------------55~---------
 -7\(3)--5h7-------------5h7p5-7\(3)-5h7--------5-7-
 ------------------------------------------5-5-7----

(Guitar 2)
 
 ---------------------------------------------------
 ---------------------------------------------------
 ---------9~~~--------------------------------------
 ------------------------------7p5------------------
 ----------------------------------7~~~-------------
 ---------------------------------------------------

(Guitar 3)
Gm7 Gm7\(Am7)
 
 ---------------------------------------
 ---------------------------------------
 -12-------------------12\(7)-----------
 -12-----10h12p10\(7)--12\(7)-----------
 ---------------------------------------
 ---------------------------------------

(Guitar 1)
 
 ---------------------------------------------------
 ---------------------------------------------------
 ---------------------------------------------------
 -----------7-7-5~--5/7-5---------------55~---------
 -7\(3)--5h7-------------5h7p5-7\(3)-5h7--------5-7-
 ------------------------------------------5-5-7----

(Guitar 2)
Junior's eyes looked into the skies once more
Gm7 Gm7\(Am7)
 
 ---------------------------------------
 ---------------------------------------
 -12-------------------12\(7)-----------
 -12-----10h12p10\(7)--12\(7)-----------
 ---------------------------------------
 ---------------------------------------

(Guitar 1)
 
 ---------------------------------------------------
 ---------------------------------------------------
 ---------------------------------------------------
 -----------7-7-5~--5/7-5---------------55~---------
 -7\(3)--5h7-------------5h7p5-7\(3)-5h7--------5-7-
 ------------------------------------------5-5-7----

(Guitar 2)
Now he knew well that this life was hell for sure
Gm7 Gm7\(Am7)
 
 ---------------------------------------
 ---------------------------------------
 -12-------------------12\(7)-----------
 -12-----10h12p10\(7)--12\(7)-----------
 ---------------------------------------
 ---------------------------------------

(Guitar 1)
 
 ---------------------------------------------------
 ---------------------------------------------------
 ---------------------------------------------------
 -----------7-7-5~--5/7-5---------------55~---------
 -7\(3)--5h7-------------5h7p5-7\(3)-5h7--------5-7-
 ------------------------------------------5-5-7----

(Guitar 2)
He desperately cried, his finger tips stretched to the stars, yeah
 
 ------------------------------------------------------------------------------
 ------------------------------------------------------14^(16)-14p12-----------
 -------------------------------------------------------------------14---------
 ----------------------------------------------------------------------12-h-14~
 ------------------------------------------------------------------------------
 ------------------------------------------------------------------------------

(Guitar 3)
Gm7 Gm7\(Am7) Em7
 
 ------------------------------------------
 ------------------------------------------
 -12-------------------12\(7)---14~~-------
 -12-----10h12p10\(7)--12\(7)---14~~-------
 ------------------------------------------
 ------------------------------------------

(Guitar 1)
 
 ------------------------------------------------
 ------------------------------------------------
 ------------------------------------------------
 -----------7-7-5~--5/7-5------------7-7--7-7-7--
 -7\(3)--5h7-------------5h7p5-7\(3)-------------
 ------------------------------------------------

(Guitar 2/Bass)
Reaching for reason along with the time in the stars, yeah!
CHOURSE
[E5] [E5] [E5] [D5] [C5] [C5] [C5] [C5]  
 
 ------------------------------------------------------
 ------------------------------------------------------
 ---9--xx-9-9--9--7--5-5-xx-5-5------------------------
 ---9--xx-9-9--9--7--5-5-xx-5-5------------------------
 ---7--xx-7-7--7--5--3-3-xx-3-3--2p0-2~-22/3-2p0-------
 -0----------------------------------------------------

(Guitar 1)
You're coming home again tomorrow.
 
 ------------------------------------------------------------------------------
 ------------------------------------------------------------------------------
 -------------------------------------------7^(9`7)--4---------------------------------
 ------------------------------------------------------7-5-----------------------
 ----------------------------------------------------------7~~--------------------
 ------------------------------------------------------------------------------

[E5] [E5] [E5] [D5] [C5] [C5] [C5] [C5]  
 
 ------------------------------------------------------
 ------------------------------------------------------
 ---9--xx-9-9--9--7--5-5-xx-5-5------------------------
 ---9--xx-9-9--9--7--5-5-xx-5-5------------------------
 ---7--xx-7-7--7--5--3-3-xx-3-3--2p0-2~-22/3-2p0-------
 -0----------------------------------------------------

(Guitar 1)
I'm sorry it won't be for long
 
 -----------------------------------------------------------------------
 --------------------------------------100^(12)\9-----------------------
 ------------------------------------------------9^(11)\7---------------
 ---------------------------------------------------------7-5-----------
 ------------------------------------------------------------7-5-h-7~---
 -----------------------------------------------------------------------

(Guitar 2)
[E5] [E5] [E5] [D5] [C5] [C5] [C5] [C5]  
 
 ------------------------------------------------------
 ------------------------------------------------------
 ---9--xx-9-9--9--7--5-5-xx-5-5------------------------
 ---9--xx-9-9--9--7--5-5-xx-5-5------------------------
 ---7--xx-7-7--7--5--3-3-xx-3-3--2p0-2~-22/3-2p0-------
 -0----------------------------------------------------

(Guitar 1)
With all the pain I've watched you live with in
 
 -------------------------------------------------------------------
 -------------------------------------------------------------------
 ---------------------------------------------7/9^(11)\7------------
 --------------------------------------------------------7----------
 ----------------------------------------------------------5-7~-----
 -------------------------------------------------------------------

(Guitar 2)
[E5] [E5] [E5] [D5] [C5] [B5] [D5]  
 
 ------------------------------------------------------
 ------------------------------------------------------
 ---9--xx-9-9--9--7--5-5-5--4--7-----------------------
 ---9--xx-9-9--9--7--5-5-5--4--7-----------------------
 ---7--xx-7-7--7--5--3-3-3--2--5-----------------------
 -0----------------------------------------------------

(Guitar 1)
I'll try my hardest not to cry when it is time to say good bye.
 
 -------------------------------------------------------
 -------------------------------------------------------
 -------------------------------------------------------
 ---------------------------7^(9)--5^(7)----------------
 -----------------------------------------5~~--7~~------
 -------------------------------------------------------

(Guitar 2)
[Em7] [E5] [D] [Em7] [E5] [D5] [C5] [B5] 
 
 ------------------------------------------------------------
 ------------------------------------------------------------
 -----9\(5)-x-9-11---------------9\(5)-x--9-7-5-4------------
 -----9\(5)-x-9-12---------------9\(5)-x--9-7-5-4------------
 -----9\(5)-x-7-12-0-3p0-2/3-----9\(5)-x--7-5-3-2-0-3p0-2/3--
 -0-0-----------10-----------0-0-----------------------------

(Guitar 1)
Gm7\Em7 Gm7\Em7
 
 ------------------------------------------------------------
 ------------x-8-----------------------------------8---------
 ----12\(9)-----9~--------------12\(9)---------4~-7--9-9~----
 ----12\(9)---------------------12\(9)-----5~-7--------------
 --------------------------------------5//7------------------
 -0-0-----------------------0-0------------------------------

(Guitar 2)
[Em7] [E5] [D] [Em7] [E5] [D5] [C5] [B5] 
 
 ------------------------------------------------------------
 ------------------------------------------------------------
 -----9\(5)-x-9-11---------------9\(5)-x--9-7-5-4------------
 -----9\(5)-x-9-12---------------9\(5)-x--9-7-5-4------------
 -----9\(5)-x-7-12-0-3p0-2/3-----9\(5)-x--7-5-3-2-0-3p0-2/3--
 -0-0-----------10-----------0-0-----------------------------

(Guitar 1)
 
 -------------------------------------------------
 -------------------------------------------------
 -------------------------------------------------
 --7\4-4~~~~~~~~~----------4-7-4-4~~~~~~~~~~~~~~~~
 -------------------------------------------------
 -------------------------------------------------

(Guitar 2)
[Em7] [E5] [D] [Em7] [E5] [D5] [C5] [B5] 
 
 ------------------------------------------------------------
 ------------------------------------------------------------
 -----9\(5)-x-9-11---------------9\(5)-x--9-7-5-4------------
 -----9\(5)-x-9-12---------------9\(5)-x--9-7-5-4------------
 -----9\(5)-x-7-12-0-3p0-2/3-----9\(5)-x--7-5-3-2-0-3p0-2/3--
 -0-0-----------10-----------0-0-----------------------------

(Guitar 1)
 
 -------------------------------------------------
 -------------------------------------------------
 -~~~~~~~~~4----7---9~~~~~~~~~~~~~~~~~~~~~~~~~~~~~
 -----------7-5-----------------------------------
 -------------------------------------------------
 -------------------------------------------------

(Guitar 2)
[Em7] [E5] [D] [Em7] [E5] [D5] [C5] [B5] 
 
 ------------------------------------------------------------
 ------------------------------------------------------------
 -----9\(5)-x-9-11---------------9\(5)-x--9-7-5-4------------
 -----9\(5)-x-9-12---------------9\(5)-x--9-7-5-4------------
 -----9\(5)-x-7-12-0-3p0-2/3-----9\(5)-x--7-5-3-2-0-3p0-2/3--
 -0-0-----------10-----------0-0-----------------------------

(Guitar 1)
 
 -------------------------------------------------------------------
 -------------------15p12---15-17~~~~~-122\(9)-15/17-15-12----------
 -~~~~~~~~~~~~~~~~~~-----14------------122\(9)-------------14p12----
 -------------------------------------------------------------------
 -------------------------------------------------------------------
 -------------------------------------------------------------------

(Guitar 2)
[E5] [E5] [D5] [D5] [B5] [B5] [C5] [D5] [E5] [E5] [E5] 
 
 ---------------------------------------------------------------------
 ---------------------------------------------------------------------
 -9--9--7--7-7-7--4----4--5--7--9--9-9-9--9-9-9-9-9-9-9-9------9------
 -9--9--7--7-7-7--4----4--5--7--9--9-9-9--9-9-9-9-9-9-9-9------9------
 -7--7--5--5-5-5--2----2--3--5--7--7-7-7--7-7-7-7-7-7-7-7------7------
 -0-----------------------------0--0-0-0--0-0-0-0-0-0-0-0------0------

(Guitar 1)
 
 -------------------------------------------------
 -------------------------------------------------
 -------------------------------------------------
 -14----------------------------------------------
 -------------------------------------------------
 -------------------------------------------------

(Guitar 2)

Important: The song above is NOT stored on the Chordie server. The original song is hosted at www.xguitar.com. Chordie works as a search engine and provides on-the-fly formatting. Chordie does not index songs against artists'/composers' will. To remove this song please click here.

Text color:
Chord color:
Chord grids: 
Font size:    
Page size: 

B5 C5 D D5 E5 Em7 Gm7
Rate #2 of 4 versions

Jango Player

Login - add to songbook

SHARE PAGE  




You need to log in to post comments