Guitar Tabs, Chords and Lyrics
Major upgrade!! After one year development the new version of Chordie is now online! Please give feedback.


Shock Wave  Black Sabbath

Started:
Finished: 2:46 PM 11/28/98
Black Sabbath - Shock Wave
From Black Sabbath's "Never Say Die" Album October, 1978
Tuning Info: Standard (E) Tuning, 440Hz, 4/4 count
NOTE: Lyrics may not match written music or may be incorrect.
[f] 
C5\(B#5) D#5 A#\(G) Cm7 Bm7 C C(\G) D#5 A#
 
 -----------------------------------------------------------------
 -----------------------------------------------------------------
 ----------------------------10-10p9------------------------------
 ------5-5(\3)--8-8-8-8(\5)--10-10p9p0-10-10(\5)--8-8-8-----------
 ----1-3-3(\1)--6-6-8-8(\5)------------10-10(\5)--6-6-8-------1---
 -1-3---------------6-6(\3)-------------8--8(\3)------6--1--3-----

C5\(B#5) D#5 A#\(G) Cm7 Bm7 C C(\G) D#5 A#
 
 ------------------------------------------------------------
 ------------------------------------------------------------
 -----------------------10-10p9------------------------------
 -5-5(\3)--8-8-8-8(\5)--10-10p9p0-10-10(\5)--8-8-8-----------
 -3-3(\1)--6-6-8-8(\5)------------10-10(\5)--6-6-8-------1---
 --------------6-6(\3)-------------8--8(\3)------6--1--3-----

[Cm7] [Cm7] 
 
 -------------------------------------------------------------------------
 ---------------------10-10-10--------------------------10-10-10----------
 -----------10-8~\(4)-10-10-10----------------10-8~\(4)-10-10-10----------
 ------8--8-----------10-10-10-----------8--8-----------10-10-10----------
 -6/-10-10-------------------------6/-10--10------------------------------
 -------------------------------------------------------------------------

(Guitar 1)
C C\(G#) F D#\(C) Cm7 \(Am7) C C\(G#) F D#\(C) Cm7 \(Am7)
 
 -------------------------------------------------------------------------
 ---------------------10-10-10\(7)----------------------10-10-10\(7)------
 --9--9\(5)-10-9\(5)--10-10-10\(7)---9--9\(5)-10-9\(5)--10-10-10\(7)------
 -10-10\(6)-10-9\(5)--10-10-10\(7)--10-10\(6)-10-9\(5)--10-10-10\(7)------
 -10-10\(6)--8-6\(3)----------------10-10\(6)--8-6\(3)--------------------
 --8--8\(4)--------------------------8--8\(4)-----------------------------

(G[d]uit[d]ar 2)[u] [u] [d] [u] [d] [d] [d] [u] [u] [d] [u] [d]
[Cm7]  
 
 -----------------------------------------------------------------
 ---------------------10-10-10------------------------------------
 -----------10-8~\(4)-10-10-10----------------10-8~\(4)-----------
 ------8--8-----------10-10-10----------8---8---------------------
 -6/-10-10-------------------------6/-10-10-----------------------
 -----------------------------------------------------------------

(Guitar 1)
C C\(G#) F D#\(C) Cm7 \(Am7) C C\(G#) F E Eb F E Eb
 
 -----------------------------------------------------------------
 ---------------------10-10-10\(7)--------------------------------
 --9--9\(5)-10-9\(5)--10-10-10\(7)---9--9\(5)---------------------
 -10-10\(6)-10-9\(5)--10-10-10\(7)--10-10\(6)-10-9-8-10-9-8-------
 -10-10\(6)--8-6\(3)----------------10-10\(6)--8-7-6--8-7-6-------
 --8--8\(4)--------------------------8--8\(4)---------------6~~---

(G[d]uit[d]ar 2)[u] [u] [d] [u] [d] [d] [d]
C C\(G#) F D#\(C) Cm7 \(Am7) C C\(G#) F D#\(C) Cm7 \(Am7)
 
 -------------------------------------------------------------------------
 ---------------------10-10-10\(7)----------------------10-10-10\(7)------
 --9--9\(5)-10-9\(5)--10-10-10\(7)---9--9\(5)-10-9\(5)--10-10-10\(7)------
 -10-10\(6)-10-9\(5)--10-10-10\(7)--10-10\(6)-10-9\(5)--10-10-10\(7)------
 -10-10\(6)--8-6\(3)----------------10-10\(6)--8-6\(3)--------------------
 --8--8\(4)--------------------------8--8\(4)-----------------------------

T[d]her[d]e's no [u]re[u]ason for[d] yo[u]u t[d]o run. [d] [d] [u] [u] [d] [u] [d] You
C C\(G#) F D#\(C) Cm7 \(Am7) C C\(G#) F D#\(C) Cm7 \(Am7)
 
 -------------------------------------------------------------------------
 ---------------------10-10-10\(7)----------------------10-10-10\(7)------
 --9--9\(5)-10-9\(5)--10-10-10\(7)---9--9\(5)-10-9\(5)--10-10-10\(7)------
 -10-10\(6)-10-9\(5)--10-10-10\(7)--10-10\(6)-10-9\(5)--10-10-10\(7)------
 -10-10\(6)--8-6\(3)----------------10-10\(6)--8-6\(3)--------------------
 --8--8\(4)--------------------------8--8\(4)-----------------------------

c[d]an'[d]t escap[u]e [u]the name[d] of[u] th[d]e chosen[d] on[d]e.[u] [u] [d] [u] [d]
 
 -------------------------------------------------------------------------
 -------------------------------------------------------------------------
 -------------------------------------------------10-8~-------------------
 -----------------------------------------8--8(\4)------------------------
 -----------------------------------6/-10--10-----------------------------
 -------------------------------------------------------------------------

(Guitar 2)
C C\(G#) F D#\(C) Cm7 \(Am7) C C\(G#) F D#\(C) Cm7 \(Am7)
 
 -------------------------------------------------------------------------
 ---------------------10-10-10\(7)----------------------10-10-10\(7)------
 --9--9\(5)-10-9\(5)--10-10-10\(7)---9--9\(5)-10-9\(5)--10-10-10\(7)------
 -10-10\(6)-10-9\(5)--10-10-10\(7)--10-10\(6)-10-9\(5)--10-10-10\(7)------
 -10-10\(6)--8-6\(3)----------------10-10\(6)--8-6\(3)--------------------
 --8--8\(4)--------------------------8--8\(4)-----------------------------

Bl[d]ack[d] moon r[u]is[u]ing in a[d] bl[u]ood[d] red sky[d]. [d] [u] [u] [d] [u] [d] It's
C C\(G#) F D#\(C) Cm7 \(Am7) C C\(G#) F D#\(C) Cm7 \(Am7)
 
 -------------------------------------------------------------------------
 ---------------------10-10-10\(7)----------------------10-10-10\(7)------
 --9--9\(5)-10-9\(5)--10-10-10\(7)---9--9\(5)-10-9\(5)--10-10-10\(7)------
 -10-10\(6)-10-9\(5)--10-10-10\(7)--10-10\(6)-10-9\(5)--10-10-10\(7)------
 -10-10\(6)--8-6\(3)----------------10-10\(6)--8-6\(3)--------------------
 --8--8\(4)--------------------------8--8\(4)-----------------------------

ti[d]me [d]to real[u]iz[u]e that y[d]ou'[u]re [d]gonna di[d]e![d] [u] [u] [d] [u] [d]
 
 -------------------------------------------------------------------------
 -------------------------------------------------------------------------
 -------------------------------------------------10-8~-------------------
 -----------------------------------------8--8(\4)------------------------
 -----------------------------------6/-10--10-----------------------------
 -------------------------------------------------------------------------

(Guitar 2)
(Break)
C C\A#/C A# C A# A# A A G G C C\A#/C A# C A# A# A A G G
 
 -----------------------------------------------------------------------
 -----------------------------------------------------------------------
 --9--9\7/-9--7--10--7-8--6-6--4-4---9--9\7/-9--7---9--7-7--6-6--4-4----
 -10-10\8/10--8--10--8-8--7-7--5-5--10-10\8/10--8--10--8-8--7-7--5-5----
 -10-10\8/10--8--10--8-8--7-7--5-5--10-10\8/10--8--10--8-8--7-7--5-5----
 --8--8\6/-8--6---8--6-6--5-5--3-3---8--8\6/-8--6---8--6-6--5-5--3-3----

(Guitar 1)
Leaving your bo-dy is your answer, that's what you plan to do
[f>>>p] 
 
 ---------------------------------------------------------
 ---------------------------------------------------------
 ---------------------------------------------------------
 --8~~~~/10~~~(Let fade)----------------------------------
 ---------------------------------------------------------
 ---------------------------------------------------------

(Guitar 2)
D D\C/D C D D B B A A D D\C/D
 
 --------------------------------------------------------------------
 --------------------------------------------------------------------
 -11-11\-9/11---9--11-11--8-8--6-6(/)-11-11\-9/11--------------------
 -12-12\10/12--10--12-12--9-9--7-7(/)-12-12\10/12--------------------
 -12-12\10/12--10--12-12--9-9--7-7(/)-12-12\10/12--------------------
 -10-10\-8/10---8--10-10--7-7--5-5(/)-10-10\-8/10--10-9-8~-----------

(Guitar 1)
You're weaving time to cheat Death's master, you're on your own..going through
[f>>>p] 
 
 ----------------------------------------------------------
 ----------------------------------------------------------
 ----------------------------------------------------------
 -10~~~~~/12~~~~~(Let fade)--------------------------------
 ----------------------------------------------------------
 ----------------------------------------------------------

(Guitar 2)
C C A [f>>>p]
 
 ----------------------------------------------------------
 ----------------------------------------------------------
 --9---9--6------------------------------------------------
 -10--10--7------------------------------------------------
 --8---8--5------------------------------------------------

(Guitar 1)
[Dm7] [C#m7] [Dm7] [Dm7] [C#m7] [Dm7/Em7] [Em7] [Em7] [Dm7] [C#m7] [Dm7] [Dm7] [C#m7] [Dm7/Em7] [Em7] [Em7] 
 
 ----------------------------------------------------------------------
 ----------------------------------------------------------------------
 -12-11-12--12-11-12-12/14-14-14~--12-11-12--12-11-12-12/14-14-14~-----
 -12-11-12--12-11-12-12/14-14-14~--12-11-12--12-11-12-12/14-14-14~-----
 ----------------------------------------------------------------------
 ----------------------------------------------------------------------

We're coming! We're taking over your mind! And you think you're on your own
[Dm7] [C#m7] [Dm7] [Dm7] [C#m7] [Dm7/Em7] [Em7] [Em7] [Dm7] [C#m7] [Dm7] [Dm7] [C#m7] [Dm7/Em7] [Em7] [Em7] 
 
 ----------------------------------------------------------------------
 ----------------------------------------------------------------------
 -12-11-12--12-11-12-12/14-14-14~--12-11-12--12-11-12-12/14-14-14~-----
 -12-11-12--12-11-12-12/14-14-14~--12-11-12--12-11-12-12/14-14-14~-----
 ----------------------------------------------------------------------
 ----------------------------------------------------------------------

Don't believe you are the only one here. Look around, you're not alone!
CHOURSE
D D D\(B) F C C D D D \(B) F G G
 
 ---------------------------------------------------------
 ---------------------------------------------------------
 -11-11-11\(8)--10-x--9--9-x/11-11-11\(8)-10-x-12-12------
 -12-12-12\(9)--10-x-10-10-x/12-12-12\(9)-10-x-12-12------
 -12-12-12\(9)---8-x-10-10-x/12-12-12\(9)--8-x-10-10------
 -10-10-10\(7)-----x--8--8-x/10-10-10\(7)-----------------

Fe[d]el [d]the[d] forces of an other w[d]orl[d]d[d]
D D D\(B) F C C D D D \(B) F G G
 
 ---------------------------------------------------------
 ---------------------------------------------------------
 -11-11-11\(8)--10-x--9--9-x/11-11-11\(8)-10-x-12-12------
 -12-12-12\(9)--10-x-10-10-x/12-12-12\(9)-10-x-12-12------
 -12-12-12\(9)---8-x-10-10-x/12-12-12\(9)--8-x-10-10------
 -10-10-10\(7)-----x--8--8-x/10-10-10\(7)-----------------

Gh[d]ost[d]ly [d]shadows fill your min[d]d[d] [d]
D D D\(B) F C C D D D \(B) F G G
 
 ---------------------------------------------------------
 ---------------------------------------------------------
 -11-11-11\(8)--10-x--9--9-x/11-11-11\(8)-10-x-12-12------
 -12-12-12\(9)--10-x-10-10-x/12-12-12\(9)-10-x-12-12------
 -12-12-12\(9)---8-x-10-10-x/12-12-12\(9)--8-x-10-10------
 -10-10-10\(7)-----x--8--8-x/10-10-10\(7)-----------------

Ev[d]il [d]pow[d]er hanging over you[d] [d] [d]
D D D\(B) F C C C C C C
 
 ----------------------------------------
 ----------------------------------------
 -11-11-11\(8)--10-x--9--9--9--9--9--9---
 -12-12-12\(9)--10-x-10-10-10-10-10-10---
 -12-12-12\(9)---8-x-10-10-10-10-10-10---
 -10-10-10\(7)-----x--8--8--8--8--8--8---

As you freeze you're like a child. Look behind you!
[E] [F#] [E] [F#] [E] [F#] [E] [F#] 
 
 -------------------------------------------------------------------------
 -------------------------------------------------------------------------
 ----9--11---------9--11-------------9--11-------------------9--11--------
 ----9--11---------9--11-------------9--11-------------------9--11--------
 ----7---9---------7---9-------------7---9-------------------7---9--------
 -------------------------------------------------------------------------

(Guitar 1 - Electric)
[E] [F#] [E] [F#] [E] [F#] [E] [F#] 
 
 -------------------------------------------------------------------------
 -------------------------------------------------------------------------
 -xx-9--11------xx-9--11----------xx-9--11----------------xx-9--11--------
 -xx-9--11------xx-9--11----------xx-9--11----------------xx-9--11--------
 -xx-7---9------xx-7---9----------xx-7---9----------------xx-7---9--------
 -------------------------------------------------------------------------

(Guitar 2 - 6 string acoustic)
Somebody's calling! Someone is near! Feel yourself falling, falling with fear
[D] [F#] [D] [F#] [E] [F#] [E] [F#] 
 
 -----------------------------------------------------------------------------
 -----------------------------------------------------------------------------
 ----7---9------------------7---9---------9--11------------------9--11--------
 ----7--10------------------7--10---------9--12------------------9--12--------
 ----5--10------------------5--10---------7--12------------------7--12--------
 --------8----------------------8------------10---------------------10--------

(Guitar 1 - Electric)
[D] [F#] [D] [F#] [E] [D] [E] [D] 
 
 -----------------------------------------------------------------------------
 -----------------------------------------------------------------------------
 -xx-9---9---------------xx-9---9-------xx-9--11---------------xx-9--11-------
 -xx-9--10---------------xx-9--10-------xx-9--12---------------xx-9--12-------
 -xx-7--10---------------xx-7--10-------xx-7--12---------------xx-7--12-------
 --------8----------------------8-------------10---------------------10-------

(Guitar 2 - 6 string acoustic)
You tell yourself you're dreaming. You realize you're screaming.
 
 -----------------------------------------------------------------------
 ---------------------5-------------------------------5-----------------
 -7^(9`7)-5-5--5--5h7--7~----------7^(9`7)-5-5--5--5h7--7~--------------
 -----------------------------------------------------------------------
 -----------------------------------------------------------------------
 -----------------------------------------------------------------------

(Guitar 1 - Electric)
F\E C C C C C D D F\E C C C C C D D
 
 ----------------------------------------------------------------------
 ----------------------------------------------------------------------
 -10\9--9---9---9---9--9-xx-11-11--10\9--9---9---9---9--9-xx-11-11-----
 -10\9-10--10--10--10-10-xx-12-12--10\9-10--10--10--10-10-xx-12-12-----
 --8\7-10--10--10--10-10-xx-12-12---8\7-10--10--10--10-10-xx-12-12-----
 -------8---8---8---8--8-xx-10-10--------8---8---8---8--8-xx-10-10-----

(Guitar 2 - 6 string acoustic)
You know that this couldn't happen to you. You tell yourself that it just can't be true
 
 ---------------------------------------
 ---------------------5-----------------
 -7^(9`7)-5-5--5--5h7--7~---------------
 ---------------------------------------
 ---------------------------------------
 ---------------------------------------

(Guitar 1 - Electric)
F\E C C C C C D D
 
 ---------------------------------------
 ---------------------------------------
 -10\9--9---9---9---9--9-xx-11-11-------
 -10\9-10--10--10--10-10-xx-12-12-------
 --8\7-10--10--10--10-10-xx-12-12-------
 -------8---8---8---8--8-xx-10-10-------

(Guitar 2 - 6 string acoustic)
But there is nothing you can do, oh!
 
 -------------------------------------------------------------
 ---------------------------------------18~~~\(12)------------
 -----------------------------15-17p15------------------------
 -17~~~~------------------------------17----------------------
 ------------------------15h17--------------------------------
 -------------------------------------------------------------

(Guitar 1 Lead)
[E] [E] [D] [E] [E] [E] [D] [E]  
 
 --------------------------------------------------------------
 --------------------------------------------------------------
 --------------------------------------------------------------
 --9-9--7-9--------------2~--9-9--7-9-------------2~-----------
 --7-7--5-7--5--2------------7-7--5-7--5--2--------------------
 ----------------5-4-3p0-------------------5-4-3p0-------------

(Guitar 2 Rythem)
[Gm7]  
 
 --------------------------------------------------------------
 -12~~~~-------------------------------------------------------
 -12~~~~--12p10-12p10--10--------------------------------------
 --------------------12--12p10--10-----------------------------
 -----------------------------12--12-----------10--------------
 ------------------------------------10^(11`10)--12~~~(\7)-----

(Guitar 1 Lead)
[E] [E] [D] [E] [E] [E] [D] [E]  
 
 --------------------------------------------------------------
 --------------------------------------------------------------
 --------------------------------------------------------------
 --9-9--7-9--------------2~--9-9--7-9-------------2~-----------
 --7-7--5-7--5--2------------7-7--5-7--5--2--------------------
 ----------------5-4-3p0-------------------5-4-3p0-------------

(Guitar 2 Rythem)
 
 ---------------------------------------------------------------
 ------------------------------------------------15-17~---------
 -----------17p15h17p15---------------------15-17---------------
 ------15h17-----------17p15-15-17p15--15h17--------------------
 -15/17------------------------------17-------------------------
 ---------------------------------------------------------------

(Guitar 1 Lead)
[E] [E] [D] [E] [E] [E] [D] [E]  
 
 --------------------------------------------------------------
 --------------------------------------------------------------
 --------------------------------------------------------------
 --9-9--7-9--------------2~--9-9--7-9-------------2~-----------
 --7-7--5-7--5--2------------7-7--5-7--5--2--------------------
 ----------------5-4-3p0-------------------5-4-3p0-------------

(Guitar 2 Rythem)
 
 -----------------------------------------------------------------------------
 -15--------------------------------------------------------------------------
 ---17~-(14h17 tr~~)------------------------------------------------------15--
 -------------------(15h17 tr~~)-17p14-------------------------------15h17----
 -------------------------------------17p15\13--13-----------13/15h17---------
 ---------------------------------------------15--15-13-13h15-----------------

(Guitar 1 Lead)
 
 -----------------------------------------------------------------------------
 -15-15h17p15--15--15-15h17p15--15--15-15h17p15--15-17^(19~)-15h17p15---------
 ------------17---------------17---------------17-----------------------------
 -----------------------------------------------------------------------------
 -----------------------------------------------------------------------------
 -----------------------------------------------------------------------------

(Guitar 1 Lead)
[E] [E] [D] [E] [E] [E] [D] [E]  
 
 --------------------------------------------------------------
 --------------------------------------------------------------
 --------------------------------------------------------------
 --9-9--7-9--------------2~--9-9--7-9-------------2~-----------
 --7-7--5-7--5--2------------7-7--5-7--5--2--------------------
 ----------------5-4-3p0-------------------5-4-3p0-------------

(Guitar 2 Rythme)
 
 -----------------------------------------------------------------------------
 -----------------------------------------------------------------------------
 ---------------------------12-(12h14 tr~~)--12-(12h14 tr~~)--12-(12h14 tr~~)-
 -------------9-9p7--9-9p7-----------------14---------------14----------------
 ------------------9------9---------------------------------------------------
 -10-6^\(3`6)-----------------------------------------------------------------

(Guitar 1 Lead)
 
 -----------------------------------------------------------------------------
 ----------------------------------------------------15h18p15--15h18p15-------
 -12-(12h14 tr~~)--12-(12h14 tr~~)--12-(12h14 tr~~)----------17--------17-----
 ----------------14---------------14------------------------------------------
 -----------------------------------------------------------------------------
 -----------------------------------------------------------------------------

(Guitar 1 Lead)
[E] [E] [D] [E] [E] [E] [D] [E]  
 
 ---------------------------------------------------------------
 ---------------------------------------------------------------
 ---------------------------------------------------------------
 --9-9--7-9--------------2~--9-9--7-9---------------------------
 --7-7--5-7--5--2------------7-7--5-7-------------------14-12~--
 ----------------5-4-3p0----------------------------------------

(Guitar 2 Rythme)
 
 ----------------15-18p15------------------------------------------
 -15h18p15--15h18--------18-15-15h18p15----------------------------
 ---------17---------------------------17-15-15h17p15--15----------
 ----------------------------------------------------17------------
 ----------------------------------------------------------14-12~--
 ------------------------------------------------------------------

(Guitar 1 Lead)
BREAK
 
 ------------------------------------------------------------------------
 ---------------------------------8--------------------------------------
 -7^(9`7)-5-7^(9`7)-5--------7^(9)--9p7--------7^(9`7)-5-7^(9`7)---------
 --------------------7~--5-7-----------7-7--5-7------------------7-7-----
 ------------------------------------------------------------------------
 ------------------------------------------------------------------------

(Guitar 1)
F\E C C C C C D D F\E C C C C C D D
 
 ----------------------------------------------------------------------
 ----------------------------------------------------------------------
 -10\9--9---9---9---9--9-xx-11-11--10\9--9---9---9---9--9-xx-11-11-----
 -10\9-10--10--10--10-10-xx-12-12--10\9-10--10--10--10-10-xx-12-12-----
 --8\7-10--10--10--10-10-xx-12-12---8\7-10--10--10--10-10-xx-12-12-----
 -------8---8---8---8--8-xx-10-10--------8---8---8---8--8-xx-10-10-----

(Guitar 2 - 6 string acoustic)
 
 --17~~~~~~~~~~~~--------------------------------------------
 ------------------------------------------------------------
 ------------------------------------------------------------
 ------------------------------------------------------------
 ------------------------------------------------------------
 ------------------------------------------------------------

(Guitar 1)
[A5] [A5] [A5] [A5] [A5] 
 
 -----------------------------------------------------------
 -----------------------------------------------------------
 ---------2---------2---------2---------2-----------2-------
 ---------2---------2---------2---------2-----------2-------
 --0--0-0-0--0--0-0-0--0--0-0-0--0--0-0-0--0--0-0-0-0-------
 -----------------------------------------------------------

(Guitar 2)
 
 ----------------------------------------------------------------------
 ------8---------------------------------------------------------------
 -7^(9)-7~----5-----------------7^(9)-[rm h]11-7^(9`7)-7p5h7p5-7~~~~---
 ----------5-7--7-7~------------------------------------------7--------
 ----------------------------------------------------------------------
 ----------------------------------------------------------------------

(Guitar 1)
[Dm7] [C#m7] [Dm7] [Dm7] [C#m7] [Dm7/Em7] [Em7] [Em7] [Dm7] [C#m7] [Dm7] [Dm7] [C#m7] [Dm7/Em7] [Em7] [Em7] 
 
 ----------------------------------------------------------------------
 ----------------------------------------------------------------------
 -12-11-12--12-11-12-12/14-14-14~--12-11-12--12-11-12-12/14-14-14~-----
 -12-11-12--12-11-12-12/14-14-14~--12-11-12--12-11-12-12/14-14-14~-----
 ----------------------------------------------------------------------
 ----------------------------------------------------------------------

(Guitar 2)
 
 -------------------------------------------------------------------------------------
 -------------------------5-----------------------------------------------------------
 -5-7p5h7p5h7p5--7p5h7p5h7-7p5h7p5---------7^(9)-[rm h]11-5---------------------------
 --------------7------------------7-7~(\3)-----------------7~~--5-5h7p5h7p5h7p5-7~~~~-
 -------------------------------------------------------------------------------------
 -------------------------------------------------------------------------------------

(Guitar 1)
[Dm7] [C#m7] [Dm7] [Dm7] [C#m7] [Dm7/Em7] [Em7] [Em7] [Dm7] [C#m7] [Dm7] [Dm7] [C#m7] [Dm7/Em7] [Em7] [Em7] 
 
 ----------------------------------------------------------------------
 ----------------------------------------------------------------------
 -12-11-12--12-11-12-12/14-14-14~--12-11-12--12-11-12-12/14-14-14~-----
 -12-11-12--12-11-12-12/14-14-14~--12-11-12--12-11-12-12/14-14-14~-----
 ----------------------------------------------------------------------
 ----------------------------------------------------------------------

(Guitar 2)
CHOURSE
D D D\(B) F C C D D D \(B) F G G
 
 ---------------------------------------------------------
 ---------------------------------------------------------
 -11-11-11\(8)--10-x--9--9-x/11-11-11\(8)-10-x-12-12------
 -12-12-12\(9)--10-x-10-10-x/12-12-12\(9)-10-x-12-12------
 -12-12-12\(9)---8-x-10-10-x/12-12-12\(9)--8-x-10-10------
 -10-10-10\(7)-----x--8--8-x/10-10-10\(7)-----------------

Gh[d]ost[d]ly [d]shadows from an other[d] wo[d]rld[d]
D D D\(B) F C C D D D \(B) F G G
 
 ---------------------------------------------------------
 ---------------------------------------------------------
 -11-11-11\(8)--10-x--9--9-x/11-11-11\(8)-10-x-12-12------
 -12-12-12\(9)--10-x-10-10-x/12-12-12\(9)-10-x-12-12------
 -12-12-12\(9)---8-x-10-10-x/12-12-12\(9)--8-x-10-10------
 -10-10-10\(7)-----x--8--8-x/10-10-10\(7)-----------------

Ev[d]il [d]for[d]ces in your mind[d] [d] [d]
D D D\(B) F C C D D D \(B) F G G
 
 ---------------------------------------------------------
 ---------------------------------------------------------
 -11-11-11\(8)--10-x--9--9-x/11-11-11\(8)-10-x-12-12------
 -12-12-12\(9)--10-x-10-10-x/12-12-12\(9)-10-x-12-12------
 -12-12-12\(9)---8-x-10-10-x/12-12-12\(9)--8-x-10-10------
 -10-10-10\(7)-----x--8--8-x/10-10-10\(7)-----------------

Tr[d]app[d]ed [d]between the walls of [d]lif[d]e a[d]nd death.
D D D\(B) F C C C C C C
 
 ----------------------------------------
 ----------------------------------------
 -11-11-11\(8)--10-x--9--9--9--9--9--9---
 -12-12-12\(9)--10-x-10-10-10-10-10-10---
 -12-12-12\(9)---8-x-10-10-10-10-10-10---
 -10-10-10\(7)-----x--8--8--8--8--8--8---

Frozen in the realms of time. Look behind you!
 
 --------------------------------------------------------------
 --------------------------------------------------------------
 --------------------------------------------------------------
 --9-9--7-9--------------2~--9-9--7-9-------------2~-----------
 --7-7--5-7--5--2------------7-7--5-7--5--2--------------------
 ----------------5-4-3p0-------------------5-4-3p0-------------
 --------------------------------------------------------------
 --------------------------------------------------------------
 --------------------------------------------------------------
 --9-9--7-9--------------2~--9-9--7-9-------------2~-----------
 --7-7--5-7--5--2------------7-7--5-7--5--2--------------------
 ----------------5-4-3p0-------------------5-4-3p0-------------

Ohh oh ohh Ohh oh ohhh
 
 --------------------------------------------------------------
 --------------------------------------------------------------
 --------------------------------------------------------------
 --9-9--7-9--------------2~--9-9--7-9-------------2~-----------
 --7-7--5-7--5--2------------7-7--5-7--5--2--------------------
 ----------------5-4-3p0-------------------5-4-3p0-------------

Ohh oh ohh Ohh oh ohh
You feel yourself falling. Your at the end of the line
 
 --------------------------------------------------------------
 --------------------------------------------------------------
 --------------------------------------------------------------
 --9-9--7-9--------------2~--9-9--7-9-------------2~-----------
 --7-7--5-7--5--2------------7-7--5-7--5--2--------------------
 ----------------5-4-3p0-------------------5-4-3p0-------------

Ohh oh ohh Ohh oh ohh
Your body is calling, but your senses are blind
 
 --------------------------------------------------------------
 --------------------------------------------------------------
 --------------------------------------------------------------
 --9-9--7-9--------------2~--9-9--7-9-------------2~-----------
 --7-7--5-7--5--2------------7-7--5-7--5--2--------------------
 ----------------5-4-3p0-------------------5-4-3p0-------------

Ohh oh ohh Ohh oh ohh
Cold cold feeling a running through your brains
 
 --------------------------------------------------------------
 --------------------------------------------------------------
 --------------------------------------------------------------
 --9-9--7-9--------------2~--9-9--7-9-------------2~-----------
 --7-7--5-7--5--2------------7-7--5-7--5--2--------------------
 ----------------5-4-3p0-------------------5-4-3p0-------------

Ohh oh ohh Ohh oh ohh
Ice cold fingers flowing through your veins
 
 --------------------------------------------------------------
 --------------------------------------------------------------
 --------------------------------------------------------------
 --9-9--7-9--------------2~--9-9--7-9-------------2~-----------
 --7-7--5-7--5--2------------7-7--5-7--5--2--------------------
 ----------------5-4-3p0-------------------5-4-3p0-------------

Ohh oh ohh Ohh oh ohh
 
 --------------------------------------------------------------
 --------------------------------------------------------------
 --------------------------------------------------------------
 --9-9--7-9--------------2~--9-9--7-9-------------2~-----------
 --7-7--5-7--5--2------------7-7--5-7--5--2--------------------
 ----------------5-4-3p0-------------------5-4-3p0-------------

Ohh oh ohh Ohh oh ohh
 
 --------------------------------------------------------------
 --------------------------------------------------------------
 --------------------------------------------------------------
 --9-9--7-9--------------2~--9-9--7-9-------------2~-----------
 --7-7--5-7--5--2------------7-7--5-7--5--2--------------------
 ----------------5-4-3p0-------------------5-4-3p0-------------

Ohh oh ohh Ohh oh ohh
 
 --------------------------------------------------------------
 --------------------------------------------------------------
 --------------------------------------------------------------
 --9-9--7-9--------------2~--9-9--7-9-------------2~-----------
 --7-7--5-7--5--2------------7-7--5-7--5--2--------------------
 ----------------5-4-3p0-------------------5-4-3p0-------------

Ohh oh ohh Ohh oh ohh

Important: The song above is NOT stored on the Chordie server. The original song is hosted at www.xguitar.com. Chordie works as a search engine and provides on-the-fly formatting. Chordie does not index songs against artists'/composers' will. To remove this song please click here.

Text color:
Chord color:
Chord grids: 
Font size:    
Page size: 

A5 C#m7 Cm7 D Dm7 E Em7 F# Gm7
Rate #1 of 2 versions

Jango Player

Login - add to songbook

SHARE PAGE  



You need to log in to post comments