Guitar Tabs, Chords and Lyrics
Major upgrade!! After one year development the new version of Chordie is now online! Please give feedback.


Hand of Doom  Black Sabbath

Start Date:
Finished: 7:38 PM 10/29/97
Updated: 12:31 3/14/01
Updated again on: 06:33 3/19/01
Black Sabbath - Hand of Doom
From Black Sabbath's "Paranoid" Album 1970
Tuning Info: Standard Tuning, 82 beats/min., 4/4 count
NOTE: Lyrics written here may not align with music, due to space constraints.
(p)
 
 -----------------------------------------
 -----------------------------------------
 -----------------------------------------
 -----------------------------------------
 -3-3/5-5-5--5-55-------3-3/5-5-5--5-55---
 -----------------3-4-5-------------------

 
 ------------------------------------------
 ------------------------------------------
 ------------------------------------------
 ------------------------------------------
 -------3-3/5-5-5-5~-------3-3/5-5-5-5~----
 -3-4-5--------------3-4-5-----------------

 
 ------------------------------------------
 ------------------------------------------
 ------------------------------------------
 ------------------------------------------
 -------3-3/5-5-5-5~-------3-3/5-5-5-5~----
 -3-4-5--------------3-4-5-----------------

What'cha gonna do? Time's 'caught up with you.
 
 ------------------------------------------
 ------------------------------------------
 ------------------------------------------
 ------------------------------------------
 -------3-3/5-5-5-5~-------3-3/5-5-5-5~----
 -3-4-5--------------3-4-5-----------------

Now you wait your turn. You know there's no return
(f)
 
 ------------------------------------------
 ------------------------------------------
 ------------------------------------------
 ------------------------------------------
 -------3-3/5-5-5-5~-------3-3/5-5-5-5~----
 -3-4-5--------------3-4-5-----------------

(Guitar 1)
 
 -----------------------------------10--------
 -----------------------------------13^(115)--
 -----------------7~--------------------------
 ---------------------------------------------
 ---------------------------------------------
 ---------------------------------------------

(Guitar 2)
Take your (something something) You join the other fools
 
 ------------------------------------------
 ------------------------------------------
 ------------------------------------------
 ------------------------------------------
 -------3-3/5-5-5-5~-------3-3/5-5-5-5~----
 -3-4-5--------------3-4-5-----------------

(Guitar 1)
 
 ------------------------------------------
 ------------------------------------------
 -----------------7~-----------------------
 ------------------------------------------
 ------------------------------------------
 ------------------------------------------

(Guitar 2)
Turn to something new. Now it's killing you.
 
 ------------------------------------------
 ------------------------------------------
 ------------------------------------------
 ------------------------------------------
 -------3-3/5-5-5-5~-------3-3/5-5-5-5~----
 -3-4-5--------------3-4-5-----------------

First it was the bomb Viet Nam naplam.
 
 ------------------------------------------
 ------------------------------------------
 ------------------------------------------
 ------------------------------------------
 -------3-3/5-5-5-5~-------3-3/5-5-5-5~----
 -3-4-5--------------3-4-5-----------------

Disillusioning, you push the needle in
 
 ------------------------------------------
 ------------------------------------------
 ------------------------------------------
 ------------------------------------------
 -------3-3/5-5-5-5~-------3-3/5-5-5-5~----
 -3-4-5--------------3-4-5-----------------

(Guitar 1)
 
 -----------------------------------10--------
 -----------------------------------13^(115)--
 -----------------7~--------------------------
 ---------------------------------------------
 ---------------------------------------------
 ---------------------------------------------

(Guitar 2)
From life you escape. Reality all fake (?)
 
 ------------------------------------------
 ------------------------------------------
 ------------------------------------------
 ------------------------------------------
 -------3-3/5-5-5-5~-------3-3/5-5-5-5~----
 -3-4-5--------------3-4-5-----------------

(Guitar 1)
 
 ------------------------------------------
 ------------------------------------------
 -----------------7~-----------------------
 ------------------------------------------
 ------------------------------------------
 ------------------------------------------

(Guitar 2)
Colours in your mind, satisfying time
 
 ----------------------------------------------------------------------
 ----------------------------------------------------------------------
 ----------------------------------------------------------------------
 ----------------------------------------------------------------------
 -------3-3/5-5-5--5-55-------3-3/5-5-5---5-55-------3-3/5-5-5--5-55~--
 -3-4-5----------------3-4-5------------------3-4-5--------------------

C C C C C C C C C\(A) A#A# D# D (C)
 
 -----------------------------------------------------
 -----------------------------------------------------
 -----------------------------------------------------
 ------------------------------------------8-7--------
 -10-10-10-10-10-10-10-10-10\(7)--8-8-(x))-6-5-(10)---
 --8--8--8--8--8--8--8--8--8\(5)--6-6-(x))------(8)---

C C C C C C C C C\(A) A#A# D# D (C)
 
 -----------------------------------------------------
 -----------------------------------------------------
 -----------------------------------------------------
 ------------------------------------------8-7--------
 -10-10-10-10-10-10-10-10-10\(7)--8-8-(x))-6-5-(10)---
 --8--8--8--8--8--8--8--8--8\(5)--6-6-(x))------(8)---

C C C C C C C C C\(A) A#A# D# D (C)
 
 -----------------------------------------------------
 -----------------------------------------------------
 -----------------------------------------------------
 ------------------------------------------8-7--------
 -10-10-10-10-10-10-10-10-10\(7)--8-8-(x))-6-5-(10)---
 --8--8--8--8--8--8--8--8--8\(5)--6-6-(x))------(8)---

C C C C C C C C C\(A) A#A# D# D (C)
 
 -----------------------------------------------------
 -----------------------------------------------------
 -----------------------------------------------------
 ------------------------------------------8-7--------
 -10-10-10-10-10-10-10-10-10\(7)--8-8-(x))-6-5-(10)---
 --8--8--8--8--8--8--8--8--8\(5)--6-6-(x))------(8)---

C D# D\C\A# F C C\A# C C D# D\C\A# F C C\A# C
 
 --------------------------------------------------------------
 --------------------------------------------------------------
 --------------------------------------------------------------
 ---------------10-----------------------------10--------------
 -10-13-12\10\8--8-10-10\8-10---10-13-12\\10\8--8-10-10\8-10---
 --8-11-10\-8\6-----8--8\6--8----8-11-10\\-8\6-----8--8\6--8---

[d]Oh [d] yo[d]u, [u] [d]you[u] kn[u]ow [d] y[u]ou [d]must [d]be [d]bli[d]nd [u] [d] [u] [u] [d] [u] [d]
C D# D\C\A# F C C\A# C C D# D\C\A# F C C\A# C
 
 --------------------------------------------------------------
 --------------------------------------------------------------
 --------------------------------------------------------------
 ---------------10-----------------------------10--------------
 -10-13-12\10\8--8-10-10\8-10---10-13-12\\10\8--8-10-10\8-10---
 --8-11-10\-8\6-----8--8\6--8----8-11-10\\-8\6-----8--8\6--8---

T[d]o [d] d[d]o [u] [d] [u] [u] [d] s[u]ome[d] thin[d]g [d] l[d]ike[u] [d] [u]thi[u]s[d] [u] [d]
C D# D\C\A# F C C\A# C C D# D\C\A# F C C\A# C
 
 --------------------------------------------------------------
 --------------------------------------------------------------
 --------------------------------------------------------------
 ---------------10-----------------------------10--------------
 -10-13-12\10\8--8-10-10\8-10---10-13-12\\10\8--8-10-10\8-10---
 --8-11-10\-8\6-----8--8\6--8----8-11-10\\-8\6-----8--8\6--8---

T[d]o [d] t[d]ake[u] [d] [u]tho[u]se [d] [u]thi[d]ng t[d]hat[d] [d]you[u] [d] d[u]on'[u]t [d] [u]kno[d]w
C D# D\C\A# F C C\A# C C D# D\C\A# F C C\A# C
 
 --------------------------------------------------------------
 --------------------------------------------------------------
 --------------------------------------------------------------
 ---------------10-----------------------------10--------------
 -10-13-12\10\8--8-10-10\8-10---10-13-12\\10\8--8-10-10\8-10---
 --8-11-10\-8\6-----8--8\6--8----8-11-10\\-8\6-----8--8\6--8---

Y[d]ou'[d]re [d] gi[u]v [d]- [u] i[u]ng [d] d[u]eat[d]h a k[d]iss[d]. [d] Po[u]or[d] li[u]ttl[u]e f[d]oo[u]l, [d]now!
C C C C C C C C C\(A) A#A# D# D (C)
 
 -----------------------------------------------------
 -----------------------------------------------------
 -----------------------------------------------------
 ------------------------------------------8-7--------
 -10-10-10-10-10-10-10-10-10\(7)--8-8-(x))-6-5-(10)---
 --8--8--8--8--8--8--8--8--8\(5)--6-6-(x))------(8)---

C C C C C C C C C\(A) A#A# D# D (C)
 
 -----------------------------------------------------
 -----------------------------------------------------
 -----------------------------------------------------
 ------------------------------------------8-7--------
 -10-10-10-10-10-10-10-10-10\(7)--8-8-(x))-6-5-(10)---
 --8--8--8--8--8--8--8--8--8\(5)--6-6-(x))------(8)---

C C C C C C C C C\(A) A#A# D# D (C)
 
 -----------------------------------------------------
 -----------------------------------------------------
 -----------------------------------------------------
 ------------------------------------------8-7--------
 -10-10-10-10-10-10-10-10-10\(7)--8-8-(x))-6-5-(10)---
 --8--8--8--8--8--8--8--8--8\(5)--6-6-(x))------(8)---

C C C C C C C C C\(A) A#A# D# D (C)
 
 -----------------------------------------------------
 -----------------------------------------------------
 -----------------------------------------------------
 ------------------------------------------8-7--------
 -10-10-10-10-10-10-10-10-10\(7)--8-8-(x))-6-5-(10)---
 --8--8--8--8--8--8--8--8--8\(5)--6-6-(x))------(8)---

C D# D\C\A# F C C\A# C C D# D\C\A# F C C\A# C
 
 --------------------------------------------------------------
 --------------------------------------------------------------
 --------------------------------------------------------------
 ---------------10-----------------------------10--------------
 -10-13-12\10\8--8-10-10\8-10---10-13-12\\10\8--8-10-10\8-10---
 --8-11-10\-8\6-----8--8\6--8----8-11-10\\-8\6-----8--8\6--8---

[d]You[d]r m[d]ind[u] i[d]s f[u]ull[u] o[d]f [u] pl[d]easur[d]e[d] [d] [u] [d] [u] [u] [d] [u] [d]
C D# D\C\A# F C C\A# C C D# D\C\A# F C C\A# C
 
 --------------------------------------------------------------
 --------------------------------------------------------------
 --------------------------------------------------------------
 ---------------10-----------------------------10--------------
 -10-13-12\10\8--8-10-10\8-10---10-13-12\\10\8--8-10-10\8-10---
 --8-11-10\-8\6-----8--8\6--8----8-11-10\\-8\6-----8--8\6--8---

[d]You[d]r [d] [u] [d]bod[u] -[u] [d]ys[u] [d] [d] [d] l[d]ook[u]in[d]g [u] [u] [d] [u]ill[d]
C D# D\C\A# F C C\A# C C D# D\C\A# F C C\A# C
 
 --------------------------------------------------------------
 --------------------------------------------------------------
 --------------------------------------------------------------
 ---------------10-----------------------------10--------------
 -10-13-12\10\8--8-10-10\8-10---10-13-12\\10\8--8-10-10\8-10---
 --8-11-10\-8\6-----8--8\6--8----8-11-10\\-8\6-----8--8\6--8---

T[d]o [d] [d] y[u]ou[d] [u] [u] [d] [u] [d] i[d]t's[d] [d] [u] s[d]hal[u]low[u] l[d]ei[u]sur[d]e
C D# D\C\A# F C C\A# C C D# D\C\A# F C C\A# C
 
 --------------------------------------------------------------
 --------------------------------------------------------------
 --------------------------------------------------------------
 ---------------10-----------------------------10--------------
 -10-13-12\10\8--8-10-10\8-10---10-13-12\\10\8--8-10-10\8-10---
 --8-11-10\-8\6-----8--8\6--8----8-11-10\\-8\6-----8--8\6--8---

S[d]o [d]dro[d]p [u] [d] [u] [u] t[d]he[u] [d] acid[d] [d] pi[d]ll [u] D[d]on'[u]t s[u]top[d] t[u]o t[d]hink now.
C D# F G\(D#) C D# F G\(D#) C D# F G\(D#)
 
 ----------------------------------------------------------------------
 ----------------------------------------------------------------------
 ----------------------------------------------------------------------
 ----------------------------------------------------------------------
 -10---13-15---17\(13)---10---13-15---17\\(13)---10---13-15---17\(13)--
 --8---11-13---15\(11)----8---11-13---15\\(11)----8---11-13---15\(11)--

C#\C C C C C C C C C C#\C C C C C C C C C
 
 ----------------------------------------------------------------
 ----------------------------------------------------------------
 ----------------------------------------------------------------
 ----------------------------------------------------------------
 -11\10-10-10-10-10-10-10-10-10-11\10-10--10-10-10-10-10-10-10---
 --9\-8--8--8--8--8--8--8--8--8--9\-8--8---8--8--8--8--8--8--8---

C#\C C C C C C C C C C#\C C C C C C C C C
 
 ----------------------------------------------------------------
 ----------------------------------------------------------------
 ----------------------------------------------------------------
 ----------------------------------------------------------------
 -11\10-10-10-10-10-10-10-10-10-11\10-10--10-10-10-10-10-10-10---
 --9\-8--8--8--8--8--8--8--8--8--9\-8--8---8--8--8--8--8--8--8---

You're having a good time baby but that won't last
C#\C C C C C C C C C C#\C C C C C C C C C
 
 ----------------------------------------------------------------
 ----------------------------------------------------------------
 ----------------------------------------------------------------
 ----------------------------------------------------------------
 -11\10-10-10-10-10-10-10-10-10-11\10-10--10-10-10-10-10-10-10---
 --9\-8--8--8--8--8--8--8--8--8--9\-8--8---8--8--8--8--8--8--8---

Your mind's so full of things you're living too fast
C#\C C C C C C C C C C#\C C C C C C C C C
 
 ----------------------------------------------------------------
 ----------------------------------------------------------------
 ----------------------------------------------------------------
 ----------------------------------------------------------------
 -11\10-10-10-10-10-10-10-10-10-11\10-10--10-10-10-10-10-10-10---
 --9\-8--8--8--8--8--8--8--8--8--9\-8--8---8--8--8--8--8--8--8---

Go out enjoy yourself don't burden
C#\C C C C C C C C C C#\C C C C C C C C C
 
 ----------------------------------------------------------------
 ----------------------------------------------------------------
 ----------------------------------------------------------------
 ----------------------------------------------------------------
 -11\10-10-10-10-10-10-10-10-10-11\10-10--10-10-10-10-10-10-10---
 --9\-8--8--8--8--8--8--8--8--8--9\-8--8---8--8--8--8--8--8--8---

You need someone to help you take the needle in, yeah!
C C C C C C C C C\(A) A#A# D# D (C)
 
 -----------------------------------------------------
 -----------------------------------------------------
 -----------------------------------------------------
 ------------------------------------------8-7--------
 -10-10-10-10-10-10-10-10-10\(7)--8-8-(x))-6-5-(10)---
 --8--8--8--8--8--8--8--8--8\(5)--6-6-(x))------(8)---

C C C C C C C C C\(A) A#A# D# D (C)
 
 -----------------------------------------------------
 -----------------------------------------------------
 -----------------------------------------------------
 ------------------------------------------8-7--------
 -10-10-10-10-10-10-10-10-10\(7)--8-8-(x))-6-5-(10)---
 --8--8--8--8--8--8--8--8--8\(5)--6-6-(x))------(8)---

C C C C C C C C C\(A) A#A# D# D (C)
 
 -----------------------------------------------------
 -----------------------------------------------------
 -----------------------------------------------------
 ------------------------------------------8-7--------
 -10-10-10-10-10-10-10-10-10\(7)--8-8-(x))-6-5-(10)---
 --8--8--8--8--8--8--8--8--8\(5)--6-6-(x))------(8)---

C C C C C C C C C\(A) A#A# D# D (C) C D#
 
 -----------------------------------------------------------
 -----------------------------------------------------------
 -----------------------------------------------------------
 ------------------------------------------8-7--------------
 -10-10-10-10-10-10-10-10-10\(7)--8-8-(x))-6-5-(10)--10-13--
 --8--8--8--8--8--8--8--8--8\(5)--6-6-(x))------(8)---8-11--

d u d u d u d u d d u (Heard at beginning of lead)
LEAD (in B# aeolian scale)
 
 ----------------------------------------------------------------------------
 ----------------------------------------------------------------------------
 -7h8p7~~-7h8h10-10-8p7----------------------------------------8h10p7h8-8-8--
 ----------------------8p7--8p7--7-7-8p7---8p7--8p7--8p7h10p7-7--------------
 -------------------------10---10-------110---10---10------------------------
 ----------------------------------------------------------------------------
 ----------------------------------------------------------------------------
 ----------------------------------------------------------------------------
 -8p7--10p7--8p7---------------7-8p7--7---7-8p7---7-8p7-8p7-7-8-10/12-12-12~-
 ----10----10---10-8p7--7h8h10------10---------10----------------------------
 ---------------------10-----------------------------------------------------
 ----------------------------------------------------------------------------
 ----------------------------------------------------------------------------
 -----------------------------------------------------------------10p8-7-8p7-
 -8-88-10p8\7---------------------7-7-8p77---7-7-8p7---7-7-8p7/10------------
 ------------8p7--8p7--8p7--7h8h10--------10--------10-----------------------
 ---------------10---10---10-------------------------------------------------
 ----------------------------------------------------------------------------

[C] [A#] [G] [C] [A#] [G] 
 
 -------------------------------------------
 -------------------------------------------
 -10-8-88-8/10-10-10~-----------------------
 -------------------------------------------
 ---------------------10--8--5--10--8--5----
 ----------------------8--6--3---8--6--3----

(p)
 
 -----------------------------------------
 -----------------------------------------
 -----------------------------------------
 -----------------------------------------
 -3-3/5-5-5--5-55-------3-3/5-5-5--5-55---
 -----------------3-4-5-------------------

 
 ------------------------------------------
 ------------------------------------------
 ------------------------------------------
 ------------------------------------------
 -------3-3/5-5-5-5~-------3-3/5-5-5-5~----
 -3-4-5--------------3-4-5-----------------

 
 ------------------------------------------
 ------------------------------------------
 ------------------------------------------
 ------------------------------------------
 -------3-3/5-5-5-5~-------3-3/5-5-5-5~----
 -3-4-5--------------3-4-5-----------------

Now you know the scene. Your skin starts turning green.
 
 ------------------------------------------
 ------------------------------------------
 ------------------------------------------
 ------------------------------------------
 -------3-3/5-5-5-5~-------3-3/5-5-5-5~----
 -3-4-5--------------3-4-5-----------------

Your eyes no longer see, life's reality
 
 ------------------------------------------
 ------------------------------------------
 ------------------------------------------
 ------------------------------------------
 -------3-3/5-5-5-5~-------3-3/5-5-5-5~----
 -3-4-5--------------3-4-5-----------------

(Guitar 1)
 
 ---------------------------------(7)/10--------
 ---------------------------------(10/13^^(15)--
 -----------------7~----------------------------
 -----------------------------------------------
 -----------------------------------------------
 -----------------------------------------------

(Guitar 2)
Push the needle in Face gets sickly thin
 
 ------------------------------------------
 ------------------------------------------
 ------------------------------------------
 ------------------------------------------
 -------3-3/5-5-5-5~-------3-3/5-5-5-5~----
 -3-4-5--------------3-4-5-----------------

(Guitar 1)
 
 ------------------------------------------
 ------------------------------------------
 -----------------7~-----------------------
 ------------------------------------------
 ------------------------------------------
 ------------------------------------------

(Guitar 2)
Holes are in your skin Caused by deadly pins
 
 ------------------------------------------
 ------------------------------------------
 ------------------------------------------
 ------------------------------------------
 -------3-3/5-5-5-5~-------3-3/5-5-5-5~----
 -3-4-5--------------3-4-5-----------------

Head starts spinnin' 'round fall down to the ground
 
 ------------------------------------------
 ------------------------------------------
 ------------------------------------------
 ------------------------------------------
 -------3-3/5-5-5-5~-------3-3/5-5-5-5~----
 -3-4-5--------------3-4-5-----------------

Feel your body heave Death's hand starts to reap
 
 ------------------------------------------
 ------------------------------------------
 ------------------------------------------
 ------------------------------------------
 -------3-3/5-5-5-5~-------3-3/5-5-5-5~----
 -3-4-5--------------3-4-5-----------------

(Guitar 1)
 
 -----------------------------------10--------
 -----------------------------------13^(115)--
 -----------------7~--------------------------
 ---------------------------------------------
 ---------------------------------------------
 ---------------------------------------------

(Guitar 2)
It's too late to turn You don't want to learn
 
 ------------------------------------------
 ------------------------------------------
 ------------------------------------------
 ------------------------------------------
 -------3-3/5-5-5-5~-------3-3/5-5-5-5~----
 -3-4-5--------------3-4-5-----------------

(Guitar 1)
 
 ------------------------------------------
 ------------------------------------------
 -----------------7~-----------------------
 ------------------------------------------
 ------------------------------------------
 ------------------------------------------

(Guitar 2)
Price of life is high Now you're gonna die
 
 ----------------------------------------------------------------------
 ----------------------------------------------------------------------
 ----------------------------------------------------------------------
 ----------------------------------------------------------------------
 -------3-3/5-5-5--5-55-------3-3/5-5-5---5-55-------3-3/5-5-5--5-55~--
 -3-4-5----------------3-4-5------------------3-4-5--------------------

 
 ----------------------
 ----------------------
 ----------------------
 ----------------------
 -------3-3/5-5-5--5-55
 3-4-5-----------------


Important: The song above is NOT stored on the Chordie server. The original song is hosted at www.xguitar.com. Chordie works as a search engine and provides on-the-fly formatting. Chordie does not index songs against artists'/composers' will. To remove this song please click here.

Text color:
Chord color:
Chord grids: 
Font size:    
Page size: 

A# C G
Rate #1 of 4 versions

Jango Player

Login - add to songbook

SHARE PAGE  




You need to log in to post comments