Guitar Tabs, Chords and Lyrics
Major upgrade!! After one year development the new version of Chordie is now online! Please give feedback.


Sabbath Bloody Sabbath  Black Sabbath

11:10 AM 19-03-99
Black Sabbath - Sabbath Bloody Sabbath
From Black Sabbath's "Sabbath Bloody Sabbath" Album, Released December, 1973
Tune down to C# (444Hz),Moderate 116 beats/min. 4/4 count
NOTE: Lyrics may not match written music or may be incorrect.
Multiple guitar parts may not align due to space constraints.
(f)
D/E E D/E E C D E G\E E E D/E E D/E E C D E G\E E E
 
 ----------------------------------------------------------------------------------------
 ----------------------------------------------------------------------------------------
 ----------------------------------------------------------------------------------------
 -7/9-xx-9-(xx)7/9-xx-9-xx-5--7--9--12\9-9-9--7/9-xx-9-(xx)7/9-xx-9-xx-5--7--9--12\9-9-9-
 -5/7-xx-7-(xx)5/7-xx-7-xx-3--5--7--10\7-7-7--5/7-xx-7-(xx)5/7-xx-7-xx-3--5--7--10\7-7-7-
 ----------------------------------------------------------------------------------------

D/E E D/E E C D E G\E E E D/E E D/E E C D E G\E E E
 
 ----------------------------------------------------------------------------------------
 ----------------------------------------------------------------------------------------
 ----------------------------------------------------------------------------------------
 -7/9-xx-9-(xx)7/9-xx-9-xx-5--7--9--12\9-9-9--7/9-xx-9-(xx)7/9-xx-9-xx-5--7--9--12\9-9-9-
 -5/7-xx-7-(xx)5/7-xx-7-xx-3--5--7--10\7-7-7--5/7-xx-7-(xx)5/7-xx-7-xx-3--5--7--10\7-7-7-
 ----------------------------------------------------------------------------------------

You see right through distorted eyes, you know you have to learn.
The execution of your mind, you really have to turn.
D/E E D/E E C D E G\E E E D/E E D/E E C D E G\E E E
 
 ----------------------------------------------------------------------------------------
 ----------------------------------------------------------------------------------------
 ----------------------------------------------------------------------------------------
 -7/9-xx-9-(xx)7/9-xx-9-xx-5--7--9--12\9-9-9--7/9-xx-9-(xx)7/9-xx-9-xx-5--7--9--12\9-9-9-
 -5/7-xx-7-(xx)5/7-xx-7-xx-3--5--7--10\7-7-7--5/7-xx-7-(xx)5/7-xx-7-xx-3--5--7--10\7-7-7-
 ----------------------------------------------------------------------------------------

The race is run, the book is read, the end begins to show.
The truth is out, the lies are old, but you don't want to know.
CHOURSE
[(m)]  
[Gdim] [Fdim] [Ddim] [G] [Am7] [Am7] [Am7] [G] [G] [G] [G]  
 
 --7-5-7-5-2-3--3-3--------3\1-4---4---4---4---4---4--3---3---3---3------------------
 --5-3-5-3-0-0--0-0--------3\1-1---1---1---1---1---1--0---0---0---0------------------
 --7-5-7-5-2-0--0-0-----0h4----2---2---2---2---2---2--0---0---0---0---------7---7----
 --5-3-5-3-0-0--0-0--0h2-------2---2---2---2---2---2--0---0---0---0----5-3/7-3/7--7--
 --x-x-x-x-x-2--2-2-----------------------------------2---2---2---2-5h7--------------
 --x-x-x-x-x-3--3-3-----------------------------------3---3---3---3------------------

(Guitar 1 Electric)
[Gdim] [Fdim] [Ddim] [G] [Am7] [Am7] [Am7] [G] [G] [G] [G]  
 
 ---7-5-7-5-2-3--3-3--------3\1-4---4---4---4---4---4--3---3---3---3-17-15----------------
 ---5-3-5-3-0-0--0-0--------3\1-1---1---1---1---1---1--0---0---0---0------17-15-----------
 ---7-5-7-5-2-0--0-0-----0h4----2---2---2---2---2---2--0---0---0---0-----------17-17/19~--
 ---5-3-5-3-0-0--0-0--0h2-------2---2---2---2---2---2--0---0---0---0----------------------
 ---x-x-x-x-x-2--2-2-----------------------------------2---2---2---2----------------------
 ---x-x-x-x-x-3--3-3-----------------------------------3---3---3---3----------------------

Nobody will ever let you know When you ask the reason why
[Am7] [Am7] [Am7] [Am7] [Am7] [G] [G] [G] [G] 
 
 -4-----4-----4-----4-----4------3---3---3---3---------------------
 -1-----1-----1-----1-----1------0---0---0---0---------------------
 -2-----2-----2-----2-----2------0---0---0---0-------4-------------
 -2-----2-----2-----2-----2------0---0---0---0----5-7--7-----------
 --------------------------------2---2---2---2-5/7-----------------
 --------------------------------3---3---3---3---------------------

(Guitar 1 Electric)
[Am7] [Am7] [Am7] [Am7] [Am7] [G] [G] [G] [G] 
 
 -4-----4-----4-----4-----4------3---3---3---3----------------
 -1-----1-----1-----1-----1------0---0---0---0--17------------
 -2-----2-----2-----2-----2------0---0---0---0----------------
 -2-----2-----2-----2-----2------0---0---0---0----------------
 --------------------------------2---2---2---2----------------
 --------------------------------3---3---3---3----------------

(Guitar 2 Acoustic 6 string)
They just tell you that you're on your own
[Am] [Am] [Am] [Am] [Am] [Am] [D] [D] [D] [D] [D] [D] [D]  
 
 -0---0---0---0---0---0-------------------------
 -1---1---1---1---1---1-------------------------
 -2---2---2---2---2---2-------------------------
 -2---2---2---2---2---2----7-7-7-7--7--7-7------
 --------------------------5-5-5-5--5--5-5------
 -----------------------------------------------

(Guitar 1 & 2)
Fill your head all full of lies
(f)
D/E E D/E E C D E G\E E E D/E E D/E E C D E G\E E E
 
 ----------------------------------------------------------------------------------------
 ----------------------------------------------------------------------------------------
 ----------------------------------------------------------------------------------------
 -7/9-xx-9-(xx)7/9-xx-9-xx-5--7--9--12\9-9-9--7/9-xx-9-(xx)7/9-xx-9-xx-5--7--9--12\9-9-9-
 -5/7-xx-7-(xx)5/7-xx-7-xx-3--5--7--10\7-7-7--5/7-xx-7-(xx)5/7-xx-7-xx-3--5--7--10\7-7-7-
 ----------------------------------------------------------------------------------------

(f)
D/E E D/E E C D E G\E E E D/E E D/E E C D E G\E E E
 
 ----------------------------------------------------------------------------------------
 ----------------------------------------------------------------------------------------
 ----------------------------------------------------------------------------------------
 -7/9-xx-9-(xx)7/9-xx-9-xx-5--7--9--12\9-9-9--7/9-xx-9-(xx)7/9-xx-9-xx-5--7--9--12\9-9-9-
 -5/7-xx-7-(xx)5/7-xx-7-xx-3--5--7--10\7-7-7--5/7-xx-7-(xx)5/7-xx-7-xx-3--5--7--10\7-7-7-
 ----------------------------------------------------------------------------------------

The people who have crippled you, you wanna see them burn!
The gates of life have closed on you and there's just no return.
D/E E D/E E C D E G\E E E D/E E D/E E C D E G\E E E
 
 ----------------------------------------------------------------------------------------
 ----------------------------------------------------------------------------------------
 ----------------------------------------------------------------------------------------
 -7/9-xx-9-(xx)7/9-xx-9-xx-5--7--9--12\9-9-9--7/9-xx-9-(xx)7/9-xx-9-xx-5--7--9--12\9-9-9-
 -5/7-xx-7-(xx)5/7-xx-7-xx-3--5--7--10\7-7-7--5/7-xx-7-(xx)5/7-xx-7-xx-3--5--7--10\7-7-7-
 ----------------------------------------------------------------------------------------

You're wishing that the hand of doom, would take your mind away.
And you don't care if you don't see again the light of day.
CHOURSE
[(m)]  
[Gdim] [Fdim] [Ddim] [G] [Am7] [Am7] [Am7] [G] [G] [G] [G]  
 
 --7-5-7-5-2-3--3-3--------3\1-4---4---4---4---4---4--3---3---3---3------------------
 --5-3-5-3-0-0--0-0--------3\1-1---1---1---1---1---1--0---0---0---0---------8--12~---
 --7-5-7-5-2-0--0-0-----0h4----2---2---2---2---2---2--0---0---0---0----------9-12~---
 --5-3-5-3-0-0--0-0--0h2-------2---2---2---2---2---2--0---0---0---0----5h7/9---------
 --x-x-x-x-x-2--2-2-----------------------------------2---2---2---2-5h7--------------
 --x-x-x-x-x-3--3-3-----------------------------------3---3---3---3------------------

(Guitar 1 Electric)
[Gdim] [Fdim] [Ddim] [G] [Am7] [Am7] [Am7] [G] [G] [G] [G]  
 
 ---7-5-7-5-2-3--3-3--------3\1-4---4---4---4---4---4--3---3---3---3--15-------------
 ---5-3-5-3-0-0--0-0--------3\1-1---1---1---1---1---1--0---0---0---0-----17-15-17----
 ---7-5-7-5-2-0--0-0-----0h4----2---2---2---2---2---2--0---0---0---0-----------------
 ---5-3-5-3-0-0--0-0--0h2-------2---2---2---2---2---2--0---0---0---0-----------------
 ---x-x-x-x-x-2--2-2-----------------------------------2---2---2---2-----------------
 ---x-x-x-x-x-3--3-3-----------------------------------3---3---3---3-----------------

Nobody will ever let you know When you ask the reason why
[Am7] [Am7] [Am7] [Am7] [Am7] [G] [G] [G] [G] 
 
 -4-----4-----4-----4-----4------3---3---3---3---------------------
 -1-----1-----1-----1-----1------0---0---0---0---------------------
 -2-----2-----2-----2-----2------0---0---0---0---------9-7---------
 -2-----2-----2-----2-----2------0---0---0---0----5-7/9---9-7------
 --------------------------------2---2---2---2-5/7-----------------
 --------------------------------3---3---3---3---------------------

(Guitar 1 Electric)
[Am7] [Am7] [Am7] [Am7] [Am7] [G] [G] [G] [G] 
 
 -4-----4-----4-----4-----4------3---3---3---3----------------
 -1-----1-----1-----1-----1------0---0---0---0----------------
 -2-----2-----2-----2-----2------0---0---0---0----------------
 -2-----2-----2-----2-----2------0---0---0---0----------------
 --------------------------------2---2---2---2----------------
 --------------------------------3---3---3---3----------------

(Guitar 2 Acoustic 6 string)
They just tell you that you're on your own
[Am] [Am] [Am] [Am] [Am] [Am] [D] [D] [D] [D] [D] [D] [D]  
 
 -0---0---0---0---0---0-------------------------
 -1---1---1---1---1---1-------------------------
 -2---2---2---2---2---2-------------------------
 -2---2---2---2---2---2----7-7-7-7--7--7-7------
 --------------------------5-5-5-5--5--5-5------
 -----------------------------------------------

(Guitar 1 & 2)
Fill your head all full of lies. You bastards!
 
 ----------------------------------------------------------------------------------------------
 -15-15p12--15-15p12----------------------------15-15p12--15-15p12-----------------------------
 -15-15p12--15-15p12---------------14-12--------15-15p12--15-15p12---------------14-12---------
 ---------14--------14-14~--14-12-------12-14~~---------14--------14-14~~-14-12--------14-14~~-
 --------------------------------14--------------------------------------------14--------------
 ----------------------------------------------------------------------------------------------

(Guitar 1)
D/E E D/E E C D E G\E E E D/E E D/E E C D E G\E E E
 
 ----------------------------------------------------------------------------------------
 ----------------------------------------------------------------------------------------
 ----------------------------------------------------------------------------------------
 -7/9-xx-9-(xx)7/9-xx-9-xx-5--7--9--12\9-9-9--7/9-xx-9-(xx)7/9-xx-9-xx-5--7--9--12\9-9-9-
 -5/7-xx-7-(xx)5/7-xx-7-xx-3--5--7--10\7-7-7--5/7-xx-7-(xx)5/7-xx-7-xx-3--5--7--10\7-7-7-
 ----------------------------------------------------------------------------------------

(Guitar 2)
 
 -----------------------------------------------------------------------------
 ------------------------------------------15^(17)-15-12----------------------
 -14^(16`14)-12-14p12-----14^(16`14)-12-----------------14^(16`14)-12---------
 --------------------14~~--------------14~~--------------------------14~~-----
 -----------------------------------------------------------------------------
 -----------------------------------------------------------------------------

(Guitar 1)
D/E E D/E E C D E G\E E E D/E E D/E E C D E G\E E E
 
 ----------------------------------------------------------------------------------------
 ----------------------------------------------------------------------------------------
 ----------------------------------------------------------------------------------------
 -7/9-xx-9-(xx)7/9-xx-9-xx-5--7--9--12\9-9-9--7/9-xx-9-(xx)7/9-xx-9-xx-5--7--9--12\9-9-9-
 -5/7-xx-7-(xx)5/7-xx-7-xx-3--5--7--10\7-7-7--5/7-xx-7-(xx)5/7-xx-7-xx-3--5--7--10\7-7-7-
 ----------------------------------------------------------------------------------------

(Guitar 2)
 
 -17-17-17p15---17-17-17-17p15------------------------------------------------------------
 -17-17-17p15---17-17-17-17p15----15^(17)-15-12-------------------------------------------
 ------------16---------------16---------------14^(16`14)-12------------------------------
 -----------------------------------------------------------14~~~~~~~~~~~~~~~~~~~~--------
 -----------------------------------------------------------------------------------------
 -----------------------------------------------------------------------------------------

(Guitar 1)
D/E E D/E E C D E G\E E E D/E E D/E E C D E G\E E E
 
 ----------------------------------------------------------------------------------------
 ----------------------------------------------------------------------------------------
 ----------------------------------------------------------------------------------------
 -7/9-xx-9-(xx)7/9-xx-9-xx-5--7--9--12\9-9-9--7/9-xx-9-(xx)7/9-xx-9-xx-5--7--9--12\9-9-9-
 -5/7-xx-7-(xx)5/7-xx-7-xx-3--5--7--10\7-7-7--5/7-xx-7-(xx)5/7-xx-7-xx-3--5--7--10\7-7-7-
 ----------------------------------------------------------------------------------------

(Guitar 2)
[A] [A] [G] [A] [A] [G] [A] [G] [F#] [E] [D] [C] [D] [A] [A] [G] [A] [A] [G] [A] [G] [F#] [E] [D] [C] [E] [B] 
 
 -------------------------------------------------------------------------------------------
 -------------------------------------------------------------------------------------------
 -------------------------------------------------------------------------------------------
 -14--14-12-14--14-12-14--12-11-9-7-5-7--14--14-12-14--14-12-14--12-11-9-7-5-7-4------------
 -------------------------------------------------------------------------------------------
 -----------------------------------------------------------------------------
 -----------------------------------------------------------------------------
 -----------------------------------------------------------------------------
 -----------------------------------------------------------------------------
 -----5---5---5---5-------5---5-6------5---5---5---5-------5---5-6------------
 -0-0-3p0-3p0-3p0-3p0-0-0-3p0-3-4--0-0-3p0-3p0-3p0-3p0-0-0-3p0-3-4------------

 
 -----------------------------------------------------------------------------
 -----------------------------------------------------------------------------
 -----------------------------------------------------------------------------
 -----------------------------------------------------------------------------
 -----5---5---5---5-------5---5-6------5---5---5---5-------5---5-6------------
 -0-0-3p0-3p0-3p0-3p0-0-0-3p0-3-4--0-0-3p0-3p0-3p0-3p0-0-0-3p0-3-4------------

Where can you run to? What more can you do? No more tomorrow! Life is killing you.
 
 -----------------------------------------------------------------------------
 -----------------------------------------------------------------------------
 -----------------------------------------------------------------------------
 -----------------------------------------------------------------------------
 -----5---5---5---5-------5---5-6------5---5---5---5-------5---5-6------------
 -0-0-3p0-3p0-3p0-3p0-0-0-3p0-3-4--0-0-3p0-3p0-3p0-3p0-0-0-3p0-3-4------------

Dreams turn to nightmares, heaven turns to hell. Burned out confusion! Nothing more to tell, yeah!
D/E E E\D E E G F# E D/E E E\D E E G F# E D/E E E\D E E G F# E D B
 
 -----------------------------------------------------------------------------------------
 -----------------------------------------------------------------------------------------
 -----------------------------------------------------------------------------------------
 -7/9-9-9\7-9-9-12-11-9--7/9-9-9\7-9-9-12-11-9--7/9-9-9\7-9-9-12-11-9-7-4-----------------
 -----------------------------------------------------------------------------------------
 -----------------------------------------------------------------------------
 -----------------------------------------------------------------------------
 -----------------------------------------------------------------------------
 -----------------------------------------------------------------------------
 -----5---5---5---5-------5---5-6------5---5---5---5-------5---5-6------------
 -0-0-3p0-3p0-3p0-3p0-0-0-3p0-3-4--0-0-3p0-3p0-3p0-3p0-0-0-3p0-3-4------------

 
 -----------------------------------------------------------------------------
 -----------------------------------------------------------------------------
 -----------------------------------------------------------------------------
 -----------------------------------------------------------------------------
 -----5---5---5---5-------5---5-6------5---5---5---5-------5---5-6------------
 -0-0-3p0-3p0-3p0-3p0-0-0-3p0-3-4--0-0-3p0-3p0-3p0-3p0-0-0-3p0-3-4------------

Everything around you, what's it coming to? God knows,as your dog knows, God blast all of you!
 
 -----------------------------------------------------------------------------
 -----------------------------------------------------------------------------
 -----------------------------------------------------------------------------
 -----------------------------------------------------------------------------
 -----5---5---5---5-------5---5-6------5---5---5---5-------5---5-6------------
 -0-0-3p0-3p0-3p0-3p0-0-0-3p0-3-4--0-0-3p0-3p0-3p0-3p0-0-0-3p0-3-4------------

Sabbath, Bloody Sabbath! Nothing more to do. Living just for dying, dying just for you, yeah!
D/E E E\D E E G F# E D/E E E\D E E G F# E D/E E E\D E E G F# E D B
 
 -----------------------------------------------------------------------------------------
 -----------------------------------------------------------------------------------------
 -----------------------------------------------------------------------------------------
 -7/9-9-9\7-9-9-12-11-9--7/9-9-9\7-9-9-12-11-9--7/9-9-9\7-9-9-12-11-9-7-4-----------------
 -----------------------------------------------------------------------------------------
 -----------------------------------------------------------------------------
 -----------------------------------------------------------------------------
 -----------------------------------------------------------------------------
 -(14-\-\-\-\-\-\-\-\-\-\-\-\-\-\-\-\-\-\-\-\-\-\-\-\-\-\-\-\-\-\-\-\-\-\-3)--
 -(14-\-\-\-\-\-\-\-\-\-\-\-\-\-\-\-\-\-\-\-\-\-\-\-\-\-\-\-\-\-\-\-\-\-\-3)--
 -----------------------------------------------------------------------------

(Guitar 1)
 
 -------------------------------------------------------------------------------
 -------------------------------------------------------------------------------
 -------------------------------------------------------------------------------
 -------------------------------------------------------------------------------
 -0-2-2-2p0-2-2--0-2-2-2p0--2-2--0-2-2-2p0--2-2--0-2-2-2p0--2-2--0-2-2-2p0--2-2-
 ----------2--------------2---------------2---------------2---------------2-----

(Guitar 2)
 
 ----------------------------------------------------------------------------------------
 -------------------------------------------------------7-9^(11`9-11`9-11`9-11`9-11`9)---
 ----------------------------------------------------7-9---------------------------------
 -----------------------------------5h7/9-7-----5h7/9------------------------------------
 --------------------------------5h7---------5h7-----------------------------------------
 ----------------------------------------------------------------------------------------

(Guitar 1)
 
 -------------------------------------------------------------------------------
 -------------------------------------------------------------------------------
 -------------------------------------------------------------------------------
 -------------------------------------------------------------------------------
 -0-2-2-2p0-2-2--0-2-2-2p0--2-2--0-2-2-2p0--2-2--0-2-2-2p0--2-2--0-2-2-2p0--2-2-
 ----------2--------------2---------------2---------------2---------------2-----

(Guitar 2)
 
 -----------------------------------------------------------------------------
 -7-9-----------------------------7~~----------------------------------------------
 -----7~-7^(9`7)-4-7-7^(9`7)-4----7~~----------------------------------------------
 -----------------------------7-------(14-\-\-\-\-\-\-\-\-\-\-\-\-\-\-\-\-\-3)-----
 ------------------------------5~-----(14-\-\-\-\-\-\-\-\-\-\-\-\-\-\-\-\-\-3)-----
 -----------------------------------------------------------------------------

 
 -------------------------------------------------------------------------------
 -------------------------------------------------------------------------------
 -------------------------------------------------------------------------------
 -------------------------------------------------------------------------------
 -0-2-2-2p0-2-2--0-2-2-2p0--2-2--0-2-2-2p0--2-2--0-2-2-2p0--2-2--0-2-2-2p0--2-2-
 ----------2--------------2---------------2---------------2---------------2-----

(Guitar 2)
 
 -----------------------------------------------------------------------------
 -----------------------------------------------------------------------------
 -(19//21)--(19//21)-----------(19//21)---------------------------------------
 -(19//21)--(19//21)-(21\\19)--(19//21)-(21\\19)-(21\\19)---------------------
 --------------------(21\\19)-----------(21\\19)-(21\\19)---------------------
 -----------------------------------------------------------------------------

(Guitar 1)
 
 -------------------------------------------------------------------------------
 -------------------------------------------------------------------------------
 -------------------------------------------------------------------------------
 -------------------------------------------------------------------------------
 -0-2-2-2p0-2-2--0-2-2-2p0--2-2--0-2-2-2p0--2-2--0-2-2-2p0--2-2--0-2-2-2p0--2-2-
 ----------2--------------2---------------2---------------2---------------2-----

(Guitar 2)

Important: The song above is NOT stored on the Chordie server. The original song is hosted at www.xguitar.com. Chordie works as a search engine and provides on-the-fly formatting. Chordie does not index songs against artists'/composers' will. To remove this song please click here.

Text color:
Chord color:
Chord grids: 
Font size:    
Page size: 

A Am Am7 B C D Ddim E F# Fdim G Gdim
Rate #2 of 7 versions

Login - add to songbook

SHARE PAGE  



You need to log in to post comments