Guitar Tabs, Chords and Lyrics
Server problems seems to be fixed. Chordie has been experiencing problems with songs disappearing. These issues now seems to be fixed, but still verifying the fix. If you find anything strange, please email admin@chordie.com.


Hole in the Sky  Black Sabbath

Start Date: 04:04 11/14/01
Finished: 05:51 11/14/01
UPDATED -
Black Sabbath - Hole in the Sky
From Black Sabbath's Sabotage - July, 1975
Tuning Info: Tune to C#, Andante, 105 beats/min., 4/4 count
NOTE: Lyrics written here may not align with the tab due to space constraints.
Multiple guitar parts may not align due to space constraints.
[1] [-] [2] [-] [3] [-] [4]  
(f)
[C] [D] [D] [C] 
 
 ------------------------------------------------------------------------
 ------------------------------------------------------------------------
 ------------------------------------------------------------------------
 ---7p5h7---7p5h7----5-7p5h7-----------7pp5h7---7p5h7----5-7p5h7---------
 --------0--------0----------10--12-----------0-------0----------12--10--
 -5------5--------5-----------8--10--5--------5-------5----------10---8--

[C] [D] [D] [C] 
 
 ------------------------------------------------------------------------
 ------------------------------------------------------------------------
 ------------------------------------------------------------------------
 ---7p5h7---7p5h7----5-7p5h7-----------7pp5h7---7p5h7----5-7p5h7---------
 --------0--------0----------10--12-----------0-------0----------12--10--
 -5------5--------5-----------8--10--5--------5-------5----------10---8--
 -------------------------------------------
 -------------------------------------------
 ------(0)-5/7\5~---------------------------
 ----------------(0)-5/7\5~-----------------
 --------------------------(0)-5/7\5~(/7))--
 -(5)-5-------------------------------------
 -----------------------------------------
 -----------------------------------------
 ----(0)-5/7\5~---------------------------
 --------------(0)-5/7\5~-----------------
 ------------------------(0)-5/7\5~(/7)---
 -5---------------------------------------
 -----------------------------------------
 -----------------------------------------
 ----(0)-5/7\5~---------------------------
 --------------(0)-5/7\5~-----------------
 ------------------------(0)-5/7\5~(/7)---
 -5---------------------------------------
 -----------------------------------------
 -----------------------------------------
 ----(0)-5/7\5~---------------------------
 --------------(0)-5/7\5~-----------------
 ------------------------(0)-5/7\5~(/7)---
 -5---------------------------------------

[C] [D] [D] [C] 
 
 ------------------------------------------------------------------------
 ------------------------------------------------------------------------
 ------------------------------------------------------------------------
 ---7p5h7---7p5h7----5-7p5h7-----------7pp5h7---7p5h7----5-7p5h7---------
 --------0--------0----------10--12-----------0-------0----------12--10--
 -5------5--------5-----------8--10--5--------5-------5----------10---8--

I'm looking through, a hole in the sky, I'm seeing nowhere through the eyes of a lie
[C] [D] [D] [C] 
 
 ------------------------------------------------------------------------
 ------------------------------------------------------------------------
 ------------------------------------------------------------------------
 ---7p5h7---7p5h7----5-7p5h7-----------7pp5h7---7p5h7----5-7p5h7---------
 --------0--------0----------10--12-----------0-------0----------12--10--
 -5------5--------5-----------8--10--5--------5-------5----------10---8--

I'm getting closer to the end of the line. I'm living easy where the sun doesn't shine.
 
 -----------------------------------------
 -----------------------------------------
 ----(0)-5/7\5~---------------------------
 --------------(0)-5/7\5~-----------------
 ------------------------(0)-5/7\5~(/7)---
 -5---------------------------------------
 -----------------------------------------
 -----------------------------------------
 ----(0)-5/7\5~---------------------------
 --------------(0)-5/7\5~-----------------
 ------------------------(0)-5/7\5~(/7)---
 -5---------------------------------------
 -----------------------------------------
 -----------------------------------------
 ----(0)-5/7\5~---------------------------
 --------------(0)-5/7\5~-----------------
 ------------------------(0)-5/7\5~(/7)---
 -5---------------------------------------
 -----------------------------------------
 -----------------------------------------
 ----(0)-5/7\5~---------------------------
 --------------(0)-5/7\5~-----------------
 ------------------------(0)-5/7\5~(/7)---
 -5---------------------------------------

[C] [D] [D] [C] 
 
 ------------------------------------------------------------------------
 ------------------------------------------------------------------------
 ------------------------------------------------------------------------
 ---7p5h7---7p5h7----5-7p5h7-----------7pp5h7---7p5h7----5-7p5h7---------
 --------0--------0----------10--12-----------0-------0----------12--10--
 -5------5--------5-----------8--10--5--------5-------5----------10---8--

I'm living in a room without any view, I'm living free because the rent's never due
[C] [D] [D] [C] 
 
 ------------------------------------------------------------------------
 ------------------------------------------------------------------------
 ------------------------------------------------------------------------
 ---7p5h7---7p5h7----5-7p5h7-----------7pp5h7---7p5h7----5-7p5h7---------
 --------0--------0----------10--12-----------0-------0----------12--10--
 -5------5--------5-----------8--10--5--------5-------5----------10---8--

The synonym of all the things that I've said, are just the riddles that are built in my
head
CHOURSE (1:31)
 
 -----------------------------------------------------------------------
 -10-10\(7)--------10-10\(7)--(x-x)--10-110\(7)-------10-10\(7)--(x-x)--
 -10-10\(7)--------10-10\(7)--(x-x)--10-110\(7)-------10-10\(7)--(x-x)--
 -10-10\(7)--------10-10\(7)--(x-x)--10-110\(7)-------10-10\(7)--(x-x)--
 ------------8h10-------------------------------8h10--------------------
 -----------------------------------------------------------------------

Hole in the Sky,
 
 -----------------------------------------------------------------------
 -10-10\(7)--------10-10\(7)--(x-x)--10-110\(7)-------10-10\(7)--(x-x)--
 -10-10\(7)--------10-10\(7)--(x-x)--10-110\(7)-------10-10\(7)--(x-x)--
 -10-10\(7)--------10-10\(7)--(x-x)--10-110\(7)-------10-10\(7)--(x-x)--
 ------------8h10-------------------------------8h10--------------------
 -----------------------------------------------------------------------

Gateway to Heaven,
 
 -----------------------------------------------------------------------
 -10-10\(7)--------10-10\(7)--(x-x)--10-110\(7)-------10-10\(7)--(x-x)--
 -10-10\(7)--------10-10\(7)--(x-x)--10-110\(7)-------10-10\(7)--(x-x)--
 -10-10\(7)--------10-10\(7)--(x-x)--10-110\(7)-------10-10\(7)--(x-x)--
 ------------8h10-------------------------------8h10--------------------
 -----------------------------------------------------------------------

Window in Time,
[C] [C] [C] [B]  
 
 ---------------------------------
 ---------------------------------
 ---------------------------------
 ---------------------------------
 --10-----10-----10----9----------
 ---8------8------8----7/(12\7)---

Through which I'll fly!
[C] [D] [D] [C] 
 
 ------------------------------------------------------------------------
 ------------------------------------------------------------------------
 ------------------------------------------------------------------------
 ---7p5h7---7p5h7----5-7p5h7-----------7pp5h7---7p5h7----5-7p5h7---------
 --------0--------0----------10--12-----------0-------0----------12--10--
 -5------5--------5-----------8--10--5--------5-------5----------10---8--

[C] [D] [D] [C] 
 
 ------------------------------------------------------------------------
 ------------------------------------------------------------------------
 ------------------------------------------------------------------------
 ---7p5h7---7p5h7----5-7p5h7-----------7pp5h7---7p5h7----5-7p5h7---------
 --------0--------0----------10--12-----------0-------0----------12--10--
 -5------5--------5-----------8--10--5--------5-------5----------10---8--

[C] [D] [D] [C] 
 
 ------------------------------------------------------------------------
 ------------------------------------------------------------------------
 ------------------------------------------------------------------------
 ---7p5h7---7p5h7----5-7p5h7-----------7pp5h7---7p5h7----5-7p5h7---------
 --------0--------0----------10--12-----------0-------0----------12--10--
 -5------5--------5-----------8--10--5--------5-------5----------10---8--

I've seen the stars that dissappear in the sun, shooting's easy if you've got the right
gun,
[C] [D] [D] [C] 
 
 ------------------------------------------------------------------------
 ------------------------------------------------------------------------
 ------------------------------------------------------------------------
 ---7p5h7---7p5h7----5-7p5h7-----------7pp5h7---7p5h7----5-7p5h7---------
 --------0--------0----------10--12-----------0-------0----------12--10--
 -5------5--------5-----------8--10--5--------5-------5----------10---8--

And though I'm sitting here waiting for Mars, I don't believe there's any future in
"Cause"
CHOURSE (1:31)
 
 -----------------------------------------------------------------------
 -10-10\(7)--------10-10\(7)--(x-x)--10-110\(7)-------10-10\(7)--(x-x)--
 -10-10\(7)--------10-10\(7)--(x-x)--10-110\(7)-------10-10\(7)--(x-x)--
 -10-10\(7)--------10-10\(7)--(x-x)--10-110\(7)-------10-10\(7)--(x-x)--
 ------------8h10-------------------------------8h10--------------------
 -----------------------------------------------------------------------

Hole in the Sky,
 
 -----------------------------------------------------------------------
 -10-10\(7)--------10-10\(7)--(x-x)--10-110\(7)-------10-10\(7)--(x-x)--
 -10-10\(7)--------10-10\(7)--(x-x)--10-110\(7)-------10-10\(7)--(x-x)--
 -10-10\(7)--------10-10\(7)--(x-x)--10-110\(7)-------10-10\(7)--(x-x)--
 ------------8h10-------------------------------8h10--------------------
 -----------------------------------------------------------------------

Gateway to Heaven,
 
 -----------------------------------------------------------------------
 -10-10\(7)--------10-10\(7)--(x-x)--10-110\(7)-------10-10\(7)--(x-x)--
 -10-10\(7)--------10-10\(7)--(x-x)--10-110\(7)-------10-10\(7)--(x-x)--
 -10-10\(7)--------10-10\(7)--(x-x)--10-110\(7)-------10-10\(7)--(x-x)--
 ------------8h10-------------------------------8h10--------------------
 -----------------------------------------------------------------------

Window in Time,
[C] [C] [C] [B]  
 
 ---------------------------------
 ---------------------------------
 ---------------------------------
 ---------------------------------
 --10-----10-----10----9----------
 ---8------8------8----7/(12\7)--- 

Through which I'll fly! Yeah!!
LEAD (2:40)
(2:51)
 
 ---------------------------------------------------------------------
 -8p5-10~----8p5-10--10-10~~---8p5------------------------------------
 ----7----------7-----------------7-7/9-77/9~-7/9~--7p5---------------
 ------------------------------------------------------7~-------------
 ---------------------------------------------------------------------
 ---------------------------------------------------------------------

(Guitar 1)
(2:51)
 
 ---------------------------------------------------------------------
 -(5)/10~-------------------------------------------------------------
 ------------------------------8p5------------------------------------
 ------------7p5--7---7-7~~-------7-7^(9))-7^(9~)-7^(9~)-7^(9`7)-5~---
 ---------------7-----------------------------------------------------
 ---------------------------------------------------------------------

(Guitar 2)
[C] [D] [D] [C] 
 
 ------------------------------------------------------------------------
 ------------------------------------------------------------------------
 ------------------------------------------------------------------------
 ---7p5h7---7p5h7----5-7p5h7-----------7pp5h7---7p5h7----5-7p5h7---------
 --------0--------0----------10--12-----------0-------0----------12--10--
 -5------5--------5-----------8--10--5--------5-------5----------10---8--

(Guitar 3)
(2:54-2:56)
 
 -------------------------------------------
 -----5-8-------5-8------5-8--10--10-10~----
 -7^9)-----7^(9)----7^(9)-------------------
 -------------------------------------------
 -------------------------------------------
 -------------------------------------------

(Guitar 1)
(2:54-2:56)
 
 -------------------------------------------
 --------------5-8------5-8--10--10-10~-----
 ---------7^(9)----7^(9)--------------------
 -------------------------------------------
 -------------------------------------------
 -------------------------------------------

(Guitar 2)
[C] [D] [D] [C] 
 
 ------------------------------------------------------------------------
 ------------------------------------------------------------------------
 ------------------------------------------------------------------------
 ---7p5h7---7p5h7----5-7p5h7-----------7pp5h7---7p5h7----5-7p5h7---------
 --------0--------0----------10--12-----------0-------0----------12--10--
 -5------5--------5-----------8--10--5--------5-------5----------10---8--

(Guitar 3)
(3:02)
 
 -----8-10^(12)-----8-10^(12`10)------8-110^(12--12-12`10)-8h10---10^(12-12-12-12`10)-8-
 -8h10----------8h10-------------8h10---------------------------8-----------------------
 ---------------------------------------------------------------------------------------
 ---------------------------------------------------------------------------------------
 ---------------------------------------------------------------------------------------
 ---------------------------------------------------------------------------------------

(Guitar 1)
(3:02)
 
 -----8-10^(12)-----8-10^(12`10)------8-110^(12--12-12`10)-8h10---10^(12-12-12-12`10)-8-
 -8h10----------8h10-------------8h10---------------------------8-----------------------
 ---------------------------------------------------------------------------------------
 ---------------------------------------------------------------------------------------
 ---------------------------------------------------------------------------------------
 ---------------------------------------------------------------------------------------

(Guitar 2)
C D (3:02) D C (3:05)
 
 ------------------------------------------------------------------------
 ------------------------------------------------------------------------
 ------------------------------------------------------------------------
 ---7p5h7---7p5h7----5-7p5h7-----------7pp5h7---7p5h7----5-7p5h7---------
 --------0--------0----------10--12-----------0-------0----------12--10--
 -5------5--------5-----------8--10--5--------5-------5----------10---8--

(Guitar 3)
(3:07)
 
 -12^(14-14-14)--12^(14-14-14)--12^(14-144-14)--12^(14-14-14)--12^(14-14`12)-10-12p10----
 -------------------------------------------------------------------------------------10~
 ----------------------------------------------------------------------------------------
 ----------------------------------------------------------------------------------------
 ----------------------------------------------------------------------------------------
 ----------------------------------------------------------------------------------------

(Guitar 1)
(3:07)
 
 -12^(14-14-14)--12^(14-14-14)--12^(14-144-14)--12^(14-14-14)--12^(14-14`12)-10-12p10----
 -------------------------------------------------------------------------------------10~
 ----------------------------------------------------------------------------------------
 ----------------------------------------------------------------------------------------
 ----------------------------------------------------------------------------------------
 ----------------------------------------------------------------------------------------

(Guitar 2)
C D D C (3:12)
 
 ------------------------------------------------------------------------
 ------------------------------------------------------------------------
 ------------------------------------------------------------------------
 ---7p5h7---7p5h7----5-7p5h7-----------7pp5h7---7p5h7----5-7p5h7---------
 --------0--------0----------10--12-----------0-------0----------12--10--
 -5------5--------5-----------8--10--5--------5-------5----------10---8--

(Guitar 3)
(3:12)
 
 -14^(16-16-16-16`14)-12~-14^(16)-14-14p112---------
 ------------------------------------------10~~-----
 ---------------------------------------------------
 ---------------------------------------------------
 ---------------------------------------------------
 ---------------------------------------------------

(Guitar 1)
(3:12)
 
 -14^(16-16-16-16`14)-12~-14^(16)-------------------
 ---------------------------------------------------
 ----------------------------------5-7p5------------
 -----------------------------------------7~~-------
 ---------------------------------------------------
 ---------------------------------------------------

(Guitar 2)
[C] [D] [D] [C] 
 
 ------------------------------------------------------------------------
 ------------------------------------------------------------------------
 ------------------------------------------------------------------------
 ---7p5h7---7p5h7----5-7p5h7-----------7pp5h7---7p5h7----5-7p5h7---------
 --------0--------0----------10--12-----------0-------0----------12--10--
 -5------5--------5-----------8--10--5--------5-------5----------10---8--

I've seen the Dogs of War enjoying their feast, I've seen the Western World go down in
the East
[C] [D] [D] [C] 
 
 ------------------------------------------------------------------------
 ------------------------------------------------------------------------
 ------------------------------------------------------------------------
 ---7p5h7---7p5h7----5-7p5h7-----------7pp5h7---7p5h7----5-7p5h7---------
 --------0--------0----------10--12-----------0-------0----------12--10--
 -5------5--------5-----------8--10--5--------5-------5----------10---8--

The Food of Love became the greed of our time, and now we're living on the profits of
crime.
 
 -----------------------------------------
 -----------------------------------------
 ----(0)-5/7\5~---------------------------
 --------------(0)-5/7\5~-----------------
 ------------------------(0)-5/7\5~(/7)---
 -5---------------------------------------
 -----------------------------------------
 -----------------------------------------
 ----(0)-5/7\5~---------------------------
 --------------(0)-5/7\5~-----------------
 ------------------------(0)-5/7\5~(/7)---
 -5---------------------------------------
 -----------------------------------------
 -----------------------------------------
 ----(0)-5/7\5~---------------------------
 --------------(0)-5/7\5~-----------------
 ------------------------(0)-5/7\5~(/7)---
 -5---------------------------------------
 -----------------------------------------
 -----------------------------------------
 ----(0)-5/7\5~---------------------------
 --------------(0)-5/7\5~-----------------
 ------------------------(0)-5/7\5~(/7)---
 -5---------------------------------------

[C] [D] [D] [C] 
 
 ------------------------------------------------------------------------
 ------------------------------------------------------------------------
 ------------------------------------------------------------------------
 ---7p5h7---7p5h7----5-7p5h7-----------7pp5h7---7p5h7----5-7p5h7---------
 --------0--------0----------10--12-----------0-------0----------12--10--
 -5------5--------5-----------8--10--5--------5-------5----------10---8--

[C] [D]  
 
 ---------------------------------------------------------
 ---------------------------------------------------------
 ---------------------------------------------------------
 ---7p5h7---7p5h7----5-7p5h7-----------7pp5h7---7p5h7-----
 --------0--------0----------10--12-----------0-------0---
 -5------5--------5-----------8--10--5--------5-------5---


Important: The song above is NOT stored on the Chordie server. The original song is hosted at www.xguitar.com. Chordie works as a search engine and provides on-the-fly formatting. Chordie does not index songs against artists'/composers' will. To remove this song please click here.

Text color:
Chord color:
Chord grids: 
Font size:    
Page size: 

B C D
Rate #1 of 3 versions

Login - add to songbook

SHARE PAGE  




You need to log in to post comments